311

Time Bomb

311

tabs

by  LINEKERS

save to print version add songbook text version e-mail correct tuner
chordsukulelecavacokeyboardtabbassdrumsharmonicaflute Guitar Pro
close

there isn't a video lesson for this song

chords

Time Bomb

	  		
Intro palm muted
 
e|-------------------------------------------------| 
B|-------------------------------------------------| 
G|-------------------------------------------------| 
D|----------------------------5-5--5-----5-5-5-----| 
A|-6-6--6-6--6-6--6--6-6--4-4-3-3--3--6--3-3-3-6---| 
E|-4-4--4-4--4-4--4--4-4--2-2---------4--------4---| 

Verse 

e|-----------------------------------------------------------------------| 
B|-----------------------------------------------------------------------| 
G|-----------------------------------------------------------------------| 
D|--------------------------------------------------5-5--5-----5-5-5-----| 
A|-------6---6-------6---6-------6-6---6---6-6--4-4-3-3--3--6--3-3-3-6---| 
E|-x-x-x-4-x-4-x-x-x-4-x-4-x-x-x-4-4-x-4-x-4-4--2-2---------4--------4---| 
	
Pre-Chorus 

e|-----------------------------------------------------| 
B|-----------------------------------------------------| 
G|-----------------------------------------------------| 
D|-----------------------------------------------------| 
A|--333--333--333-3-x-333-----111--111--333-3-3-333----| 
E|-----4----4----4-------4-------2----2----4--------4--| 

Chorus 

e|-------------------------------------------------| 
B|-------------------------------------------------| 
G|-------------------------------------------------| 
D|-6-6-xx-6-6-x-6-6-x-6-xx-6-6-xx-4-4-xx-4-4-xx-4-x| 
A|-6-6-xx-6-6-x-6-6-x-6-xx-6-6-xx-4-4-xx-4-4-xx-4-x| 
E|-4-4-xx-4-4-x-4-4-x-4-xx-4-4-xx-2-2-xx-2-2-xx-4-x| 

e|----------------------------------------------------| 
B|----------------------------------------------------| 
G|----------------------------------------------------| 
D|-4-4-xx-4-4-xx-6-6-xx-6-6-x-6-6----------3-4-3------| 
A|-4-4-xx-4-4-xx-6-6-xx-6-6-x-6-6--3-3-4-6-------6-4--| 
E|-2-2-xx-2-2-xx-4-4-xx-4-4-x-4-4---------------------| 
	 


Bridge
 
e|----------------------------------| 
B|----------------------------------| 
G|---------8/10---13/10--8-8/10-10--| 
D|-10-11---x--x----x--x--x-x--x--x--| 
A|--x--x---6/-8---11/-8--6-6/-8--8--| 
E|--8--9----------------------------| 

Played at the end of bridge 

e|----------------------------------------------------------------------| 
B|----------------------------------------------------------------------| 
G|----------------11-13-----------------11-13---------------------------| 
D|-----------10-12-----------------10-12--------------------------------| 
A|------11-13-----------------11-13-------------------------------------| 
E|-11-13-----------------11-13------------------------------------------| 
	This may be incorrect -- just sayin 

Synthy part 

e|-----------------------------------------------------xxxx-xxxx-x-------------| 
B|----16-15-14---------16-15-14--------14-13-11--------xxxx-xxxx-x-------------| 
G|-/13--------15----/13--------15-15/11--------13-13---xxxx-xxxx-x-------------| 
D|-----------------------------------------------------xxxx-xxxx-x-------------| 
A|-----------------------------------------------------xxxx-xxxx-x-------------| 
E|-----------------------------------------------------xxxx-xxxx-x-------------| 
	 

 
		  

See also:

tabs Red Hot Chili Peppers - I Could Have Lied tabs Ben Harper - Diamonds on inside tabs Red Hot Chili Peppers - By The Way (ver. 2) tabs Audioslave - Show Me How To Live tabs Incubus - 11 A.M. tabs Red Hot Chili Peppers - Scar Tissue
e-chords

Other versions:

tabs Rancid - Time Bomb tabs 311 - Time Bomb tabs All Time Low - Time Bomb (acoustic) tabs Rancid - Time Bomb (ver. 2)
auto scroll beats size up size down change color hide chords drawings
tab show chords e-chords YouTube Clip e-chords hide all tabs e-chords go to top tab

share