311

Five Of Everything

311

tabs Intermediate intermediate

by  TARIKIKE

save to print version add songbook text version e-mail correct tuner
chordsukulelecavacokeyboardtabbassdrumsharmonicaflute Guitar Pro
close

there isn't a video lesson for this song

chords

Five Of Everything

	  		
Intro 


e|------------------------------------------------------------| 
B|--------------------------------------------9-9-------------| 
G|--------------------------8---------------------8-8---------| 
D|-6-6--6--6-6-----6-6-9-9-----9-9--9--9-9-----------9--------| 
A|------------------------------------------------------------| 
E|------------------------------------------------------------| 

e|------------------------------------------------------------------------| 
B|----------------------10-10---------------------------------------------| 
G|----------------------------9-9------------11--8------------------------| 
D|-11-11--11--11-11--------------11----6-9--------9--11-9-----------------| 
A|-------------------------------------------------------------9--7-6-----| 
E|------------------------------------------------------------------------| 

e|------------------------------------------------------------| 
B|--------------------------------------------9-9-------------| 
G|--------------------------8---------------------8-8---------| 
D|-6-6--6--6-6-----6-6-9-9-----9-9--9--9-9-----------9--------| 
A|------------------------------------------------------------| 
E|------------------------------------------------------------| 

e|---------------------------------------------------------------| 
B|----------------------10-10------------------------------------| 
G|----------------------------9-9-------------11--8----8~--------| 
D|-11-11--11--11-11--------------11-----6-9--------9-------------| 
A|---------------------------------------------------------------| 
E|---------------------------------------------------------------| 

Verse/Pre-Chorus Chords 
---------------------- 

e|--------------------------------------------------| 
B|--------------------------------------------------| 
G|-----------------------------------------4--------| 
D|-2-----------6----------7----------2-----4--------| 
A|-2-----------6----------7----------2-----2--------| 
E|-0-----------4----------5----------0-----2--------| 

Chorus Chords 
------------ 

e|--------------------------------------------------| 
B|--------------------------------------------------| 
G|-6---------------------------------------5--------| 
D|-6-----------6----------7----------2-----5--------| 
A|-4-----------6----------7----------2-----3--------| 
E|-------------4----------5----------0--------------| 

e|--------------------------------------------------| 
B|--------------------------------------------------| 
G|-6---------------------------------------4--------| 
D|-6-----------6----------7----------2-----4--------| 
A|-4-----------6----------7----------2-----2--------| 
E|-------------4----------5----------0-----2--------| 

Post Chorus Riff 
-------------- 

e|----------------------------------------------------------| 
B|----------------------------------------------------------| 
G|----------------------------------------------------------| 
D|----------------------------------------------------------| 
A|-4---2-4-2-4---2---4-------4--2-4-------4---2-4-2-4-------| 
E|------------------------4----------4--4-------------------| 

e|----------------------------------------------------------| 
B|----------------------------------------------------------| 
G|----------------------------------------------------------| 
D|----------------------------------------------------------| 
A|-2---0-2-0-2---0---2-------2--0-2-------2---0-2-0-2-------| 
E|------------------------2----------2--2-------------------| 

e|----------------------------------------------------------| 
B|----------------------------------------------------------| 
G|----------------------------------------------------------| 
D|----------------------------------------------------------| 
A|-4---2-4-2-4---2---4-------4--2-4-------4---2-4-2-4-------| 
E|------------------------4----------4--4-------------------| 

e|----------------------------------------------------------| 
B|----------------------------------------------------------| 
G|----------------------------------------------------------| 
D|----------------------------------------------------------| 
A|-2---0-2-0-2---0---2-------2--0-2-------2---0-2-0-2-------| 
E|------------------------2----------2--2-------------------| 

Repeat Pre-Chorus 

Repeat Chorus 

Repeat Post-Chorus 

Bridge Riff 
--------- 

e|--------------------------------------------------------------------------^-----| 
B|----------------------------------------------------------------------19r18-----| 
G|--------------------------------------------------------------------------------| 
D|--------------------------------------------------------------------------------| 
A|--------4--2--0--------------4--2--0--------------4--2--0-----------------------| 
E|-2--0-2----------0--2-2--0-2----------0--2-2--0-2----------0--2-0~--------------| 

e|---------------------------------------------------------------------------------| 
B|---------------------------------------------------------------------------------| 
G|---------------------------------------------------------------------------------| 
D|---------------------------------------------------------------------------------| 
A|--------4--2--0--------------4--2--0--------------4--2--0---------------2--3-----| 
E|-2--0-2----------0--2-2--0-2----------0--2-2--0-2----------0--2-0---5------------| 

Repeat Post-Chorus 

Repeat Intro 
		  

See also:

tabs Ben Harper - Diamonds on inside tabs Red Hot Chili Peppers - Scar Tissue (ver. 2) tabs Red Hot Chili Peppers - The Zephyr Song tabs Red Hot Chili Peppers - I Could Die For You tabs Red Hot Chili Peppers - Give It Away tabs Red Hot Chili Peppers - Scar Tissue
e-chords

Other versions:

tabs 311 - Five Of Everything
auto scroll beats size up size down change color hide chords drawings
tab show chords e-chords YouTube Clip e-chords hide all tabs e-chords go to top tab

share