311

Beautiful Disaster Tab

311

Difficulty: AdvancedAdvanced

by MoRtE%2D

tuner correct add songbook print version text version save to e-mail
chordsukuleleukulelecavacokeyboardtabbassdrummharmonicsflute Guitar Pro
close

there isn't a video lesson for this song

request
chords

Beautiful Disaster

  		Standard tuning  
 
I have been getting a lot of requests for this song, so I decided to sit down  
 
and tab this one out.  
 
   
 
Intro Riff:  
 
a--2-0-2------------  
E--------3-2-0-2-3-- play about 8x  
 
   
 
Solo #1:  
 
e-2--2-2-3-2-0-2-0----------0-0-0-2-0-|  
b-------------------3-3-3-3-----------| play 2x  
 
   
 
Solo #1: (continued)  
 
e-2-3-5--7-5-3--3-5-7-5-3-5-7-5-3-2-0-2-0-------0-0-2-0-  
b-----------------------------------------3-3-3---------  
 
   
 
Verse Riff 1:  
 
Bm G E F#  
 
e-2-2--3-3--0-0--2-2--  
b-3-3--3-3--0-0--2-2-- play 2x  
g-4-4--4-4--1-1--3-3--  
 
   
 
Verse Riff 2:  
 
B5 A5 G5 E5 F#5  
 
g-4-4-4--2-2----------------------------------  
d-4-4-4--2-2--5-5-5-5-5--2-2-2-2-2--4-4-4-4-4- play  
a-2-2-2--0-0--5-5-5-5-5--2-2-2-2-2--4-4-4-4-4- 2x  
E-------------3-3-3-3-3--0-0-0-0-0--2-2-2-2-2-  
 
   
 
***PLAY INTRO RIFF 4X***  
 
   
 
***PLAY VERSE RIFF 1 2X***  
 
   
 
***PLAY VERSE RIFF 2 2X***  
 
   
 
***PLAY INTRO RIFF 4X***  
 
   
 
CHORUS:  
 
E5 C#5 F#5 B5  
 
g--------6-6-6---------4-4-4--  
d-2-2-2--6-6-6--4-4-4--4-4-4-- play 6x   
a-2-2-2--4-4-4--4-4-4--2-2-2--   
E-0-0-0--4-4-4--2-2-2--2-2-2--  
 
   
 
POST-CHORUS:  
 
a-2-2------------------ play about 4 times  
E-0-0-3br-0--3br--3br--  
 
   
 
SOLO #2:  
 
e-2--2-2-2-3-2-0-2-0------------0-0-0-2-0-| play 2x  
b--------------------3-3--3-3-3-----------|  
 
   
 
SOLO #2 (continued):  
 
e-2-3-5--7-9-10--9-10-12-10-12-14-12-14-15-14-12-12-10-|  
b------------------------------------------------------|  
 
   
 
SOLO #2 (continued again):  
 
e-10-9-10-9-7-9-7-5-7-5-2--|  
b--------------------------|  
 
   
 
***GUITAR OUT FOR A LITTLE WHILE***  
 
   
 
***VERSE RIFF 2 2X***  
 
   
 
***INTRO RIFF 4X***  
 
   
 
***CHORUS ABOUT 6X***  
 
   
 
***POST-CHORUS 4X***  
 
   
 
Well that's the whole thing. I don't think I left any parts out. If you  
 
have any questions or requests just write me at [email protected] Also  
 
write me if you wanna sign up for  
 
my tab mailing list.  
 
_______________________________________________________________________ 
 
Beautiful Disaster  
 
 
Today seems like a good day to burn a bridge or two  
 
The one with old wood creaking that would burn away right on cue  
 
I try to be not like that but some people really suck  
 
Some people need to get the axing chalk it up to bad luck  
 
   
 
I know a drugstore cowgirl so afraid of getting bored  
 
She's always running from something so many things ignored  
 
I might do that stuff if it didn't make me feel like shit  
 
I'm on some old reality tip so many trips in it  
 
   
 
Beautiful disaster  
 
Flyin' down the street again  
 
I tried to keep up  
 
You wore me out and left me ate up  
 
Now I wish you all the luck  
 
You're a butterfly in the wind without a care  
 
A pretty train crash to me and I can't care  
 
I do I don't whatever  
 
   
 
I know a drugstore cowgirl so afraid of getting bored  
 
She's always running from something so many things ignored  
 
I try to be not like this but I thought it'd make a good song  
 
There's nothing to see shows over people just move along  
 
   
 
Beautiful disaster  
 
Flyin' down the street again  
 
I tried to keep up  
 
You wore me out and left me ate up  
 
Now I wish you all the luck  
 
You're a butterfly in the wind without a care  
 
A pretty train crash to me and I can't care  
 
I do I don't whatever  
	  

Full key step upFull key step up
Half key step upHalf key step up
Half key step downHalf key step down
Full key step downFull key step down
Search Paypal
auto scroll beats size up size down change color hide chords drawings
tab show chords e-chords YouTube Clip e-chords hide all tabs e-chords go to top tab

share with facebook