2Pac

Ghetto Gospel

2Pac

tabs Beginner beginner

by  BRIAN<

save to print version add songbook text version e-mail correct tuner
chordsukulelecavacokeyboardtabbassdrumsharmonicaflute Guitar Pro
close

there isn't a video lesson for this song

chords

Ghetto Gospel

	  		 
Intro 
               x2 
|--16--15--13----| 
|-------------16-| 
|----------------| 
|----------------| 
|----------------| 
|----------------| 
 
Chorus 
                          first ending         second ending 
|---------------------|-----------------------|------------| 
|---------------------|-----------------------|------------| 
|------6-6~------8-8~-|-------10-10~------8-8~|-10~~--8~~~-| 
|--6-6-6-6~--8-8-8-8~-|-10-10-10-10~--8-8-8-8~|-10~~--8~~~-| 
|--4---------6--------|-8-------------6-------|-8~~~--6~~~-| 
|---------------------|-----------------------|------------| 
 
|-----------------------------------------------------------| 
|-----------------------------------------------------------| 
|------6-6~------8-8~------6-6~------5-5~--3~~--5~~-6~~-8~~-| 
|--6-6-6-6~--8-8-8-8~--6-6-6-6~--5-5-5-5~--3~~--5~~-6~~-8~~-| 
|--4---------6---------4---------3---------1~~--3~~-4~~-6~~-| 
|-----------------------------------------------------------| 
 
 Verse 
              2x 
|---------------|------------------|---------------| 
|---------------|------------------|---------------| 
|--10--8--6--8--|--10--12--13--15--|--10--8--6--5~-| 
|--10--8--6--8--|--10--12--13--15--|--10--8--6--5~-| 
|--8---6--4--6--|--8---10--11--13--|--8---6--4--3~-| 
|---------------|------------------|---------------| 
 
              2x 
|---------------|------------------| 
|---------------|------------------| 
|--10--8--6--8--|--10--12--13--15--| 
|--10--8--6--8--|--10--12--13--15--| 
|--8---6--4--6--|--8---10--11--13--| 
|---------------|------------------| 
 
Chorus again 
verse, and so on and so on,  enjoy!! 
  
 

		  

See also:

tabs Nelly - Ride Wit Me tabs Jay-Z - Dirt Off Your Shoulder tabs Ja Rule - Always on Time tabs Eminem - Lose Yourself tabs Papa Roach - Dead Cell tabs Nelly - Over and Over
e-chords

Other versions:

tabs 2Pac - Ghetto Gospel
auto scroll beats size up size down change color hide chords drawings
tab show chords e-chords YouTube Clip e-chords hide all tabs e-chords go to top tab

share