2Pac

Thugz Mansion Acoustic

2Pac

tabs Expert expert

save to print version add songbook text version e-mail correct tuner
chordsukulelecavacokeyboardtabbassdrumsharmonicaflute Guitar Pro
close

there isn't a video lesson for this song

chords

Thugz Mansion Acoustic

	  		tabber: Will Nelson ([email protected]) 
standard tuning - fingerpicked 
Thanks to punkguitar182 and whitiebera whose submissions of this song helped me complete it. 
smae riff throughout song except strum chords during chorus 

intro slides: 
e-------------| 
B-------------| 
G--2/4-2/4\3--| 
D-------------| 
A-------------| 
E-------------| 
 
intro:  
e----4--4-----3h5p3----------| 
B----4--4-----------5p3------| 
G----5--5---------------5p3--| 
D----------------------------| 
A----------------------------| 
E--4----4--------------------| 
 
e----3--3-----------3/5p3--| 
B----4--4-----3h5p3--------| 
G----3--3------------------| 
D--------------------------| 
A--3----3------------------| 
E--------------------------| 
 
e-------------------------| 
B----2----4--6----3h5-3---| 
G----1----3--5------------| 
D----3----5--6------------| 
A----1----3--4------------| 
E-------------------------| 
 
e------------6----6---| 
B----2----4--5-----5--| 
G----1----3--4------4-| 
D----3----5-----------| 
A----1----3--4--------| 
E---------------------| 
 
this song is real easy once you know what youre doing. i can now sing the chorus while playing 
it so you can too... 
any questions/comments/constructive critisism - [email protected] 
		  

See also:

tabs Nelly - Ride Wit Me tabs Jay-Z - Dirt Off Your Shoulder tabs Ja Rule - Always on Time tabs Eminem - Lose Yourself tabs Papa Roach - Dead Cell tabs Nelly - Over and Over
e-chords

Other versions:

tabs 2Pac - Thugz Mansion Acoustic tabs 2Pac - Thugz Mansion Acoustic (ver. 2)
auto scroll beats size up size down change color hide chords drawings
tab show chords e-chords YouTube Clip e-chords hide all tabs e-chords go to top tab

share