Lucy Rose

Find Myself

Lucy Rose

keyboards

by  VSWORLD

save to print version add songbook text version e-mail correct tuner
chordsukulelecavacokeyboardtabbassdrumsharmonicaflute Guitar Pro
close

there isn't a video lesson for this song

chords

Find Myself

	  		
Tuning: D A D F# A d

Verse 
D |--0-------------------------------0--------------------------------------------------| 
A |--0-------------------------------0--------------------------------------------------| 
F#|--12--12--13--12--10--8--10-------12--12--13--12--10--8--10--------------------------| 
D |--0---------------------------7---0--------------------------7-----------------------| 
A |--0-------------------------------0--------------------------------------------------| 
D |--0-------------------------------0--------------------------------------------------| 

D |------0---0---0---0---0---0---0---0---0---0---0---0---0---0---0---0---0--------------| 
A |------0---0---0---0---4---4---4---4---0---0---0---0---0---0---0---0---0--------------| 
F#|------5---5---5---5---5---5---5---5---1-/-3---3---1---0---0---0---0---0--------------| 
D |--7---0---0---0---0---0---0---0---0---0---0---0---0---0---h2--2---0---0--------------| 
A |--0---0---0---0---0---0---0---0---0---0---0---0---0---0---0---0---0---0--------------| 
D |--0---5---5---5---5---5---5---5---5---0---0---0---0---0---0---0---0---0--------------|      x2 

Chorus 
D |---0---0---0---0---0---0---0-/-0-/-0-/-0-/-0---0---0---0---0---0---0---0-------------| 
A |---0---0---0---0---0---0---0-/-0-/-0-/-0-/-0---0---0---0---0---0---0---0-------------| 
F#|---1---0---1---0---1---0---1-/-3-/-4-/-6-/-8---8---8---7---7---7---7---7-------------| 
D |---0---0---0---0---0---0---0-/-0-/-0-/-0-/-0---0---0---0---0---0---0---0-------------| 
A |---2---0---2---0---2---0---2-/-4-/-5-/-7-/-9---9---9---7---7---7---7---7-------------| 
D |---2---0---2---0---2---0---2-/-4-/-5-/-7-/-9---9---9---7---7---7---7---7-------------|      x2 

Verse 
D |--0-------------------------------0--------------------------------------------------| 
A |--0-------------------------------0--------------------------------------------------| 
F#|--12--12--13--12--10--8--10-------12--12--13--12--10--8--10--------------------------| 
D |--0---------------------------7---0--------------------------7-----------------------| 
A |--0-------------------------------0--------------------------------------------------| 
D |--0-------------------------------0--------------------------------------------------| 

D |------0---0---0---0---0---0---0---0---0---0---0---0---0---0---0---0---0--------------| 
A |------0---0---0---0---4---4---4---4---0---0---0---0---0---0---0---0---0--------------| 
F#|------5---5---5---5---5---5---5---5---1-/-3---3---1---0---0---0---0---0--------------| 
D |--7---0---0---0---0---0---0---0---0---0---0---0---0---0---h2--2---0---0--------------| 
A |--0---0---0---0---0---0---0---0---0---0---0---0---0---0---0---0---0---0--------------| 
D |--0---5---5---5---5---5---5---5---5---0---0---0---0---0---0---0---0---0--------------|  

Chorus 
D |---0---0---0---0---0---0---0-/-0-/-0-/-0-/-0---0---0---0---0---0---0---0---|          |-0---0-| 
A |---0---0---0---0---0---0---0-/-0-/-0-/-0-/-0---0---0---0---0---0---0---0---|          |-0---0-| 
F#|---1---0---1---0---1---0---1-/-3-/-4-/-6-/-8---8---8---7---7---7---7---7---|          |-7---7-| 
D |---0---0---0---0---0---0---0-/-0-/-0-/-0-/-0---0---0---0---0---0---0---0---|          |-0---0-| 
A |---2---0---2---0---2---0---2-/-4-/-5-/-7-/-9---9---9---7---7---7---7---7---|          |-7---7-| 
D |---2---0---2---0---2---0---2-/-4-/-5-/-7-/-9---9---9---7---7---7---7---7---|    x2    |-7---7-|     
  
Bridge 
D |---------------------0---0---0---0---0---0---0---0---0---0---0---0---0---0---0---0---| 
A |---------------------0---0---0---0---4---4---4---4---0---0---0---0---4---4---4---4---| 
F#|---12---12---8---7---5---5---5---5---5---5---5---5---3---3---3---3---3---3---3---3---| 
D |---0----0----0---0---0---0---0---0---0---0---0---0---0---0---0---0---0---0---0---0---| 
A |---0-----------------0---0---0---0---0---0---0---0---0---0---0---0---0---0---0---0---| 
D |---12---11---9---7---5---5---5---5---5---5---5---5---4---4---4---4---4---4---4---4---| 

D |---0---0---0---0---0---0---0---0---0---0---0---0---0---0---0---0---------------------| 
A |---0---0---0---0---4---4---4---4---0---0---0---0---0---0---0---0---------------------| 
F#|---5---5---5---5---5---5---5---5---3---3---3---3---4---4---4---4---------------------| 
D |---0---0---0---0---0---0---0---0---0---0---0---0---0---0---0---0---------------------| 
A |---0---0---0---0---0---0---0---0---0---0---0---0---0---0---0---0---------------------| 
D |---5---5---5---5---5---5---5---5---4---4---4---4---4---4---4---4---------------------| 

Chorus 
D |---0---0---0---0---0---0---0-/-0-/-0-/-0-/-0---0---0---0---0---0---0---0-------------| 
A |---0---0---0---0---0---0---0-/-0-/-0-/-0-/-0---0---0---0---0---0---0---0-------------| 
F#|---1---0---1---0---1---0---1-/-3-/-4-/-6-/-8---8---8---7---7---7---7---7-------------| 
D |---0---0---0---0---0---0---0-/-0-/-0-/-0-/-0---0---0---0---0---0---0---0-------------| 
A |---2---0---2---0---2---0---2-/-4-/-5-/-7-/-9---9---9---7---7---7---7---7-------------| 
D |---2---0---2---0---2---0---2-/-4-/-5-/-7-/-9---9---9---7---7---7---7---7-------------|      x2  

Just some picking for the first Chorus  

D |---0---0---0---0---0---0---0-/-0-/-0-/-0-/-0---0---0---0---0---0---0---0---|          |-0---0-| 
A |---0---0---0---0---0---0---0-/-0-/-0-/-0-/-0---0---0---0---0---0---0---0---|          |-0---0-| 
F#|---1---0---1---0---1---0---1-/-3-/-4-/-6-/-8---8---8---7---7---7---7---7---|          |-7---7-| 
D |---0---0---0---0---0---0---0-/-0-/-0-/-0-/-0---0---0---0---0---0---0---0---|          |-0---0-| 
A |---2---0---2---0---2---0---2-/-4-/-5-/-7-/-9---9---9---7---7---7---7---7---|          |-7---7-| 
D |---2---0---2---0---2---0---2-/-4-/-5-/-7-/-9---9---9---7---7---7---7---7---|    x2    |-7---7-|   

Outro 
D |--0-------------------------------0--------------------------------------------------| 
A |--0-------------------------------0--------------------------------------------------| 
F#|--12--12--13--12--10--8--10-------12--12--13--12--10--8--10--------------------------| 
D |--0---------------------------7---0--------------------------7-----------------------| 
A |--0-------------------------------0--------------------------------------------------| 
D |--0-------------------------------0--------------------------------------------------| 

D |---0---0---0---0---0---0---0---0---0---| 
A |---0---0---0---0---0---4---4---4---4---| 
F#|---0---5---5---5---5---5---5---5---5---| 
D |---0---0---0---0---0---0---0---0---0---| 
A |---0---0---0---0---0---0---0---0---0---| 
D |---0---5---5---5---5---5---5---5---5---|    x2   

D |---0---0---0---0---0---0---0---0---0---| 
A |---0---0---0---0---0---0---0---0---0---| 
F#|---1-/-3---3---1---0---0---0---0---0---| 
D |---0---0---0---0---0---h2--2---0---0---| 
A |---0---0---0---0---0---0---0---0---0---| 
D |---0---0---0---0---0---0---0---0---0---| 


************************************ 

| h  Hammer-on 
| /  Slide up 

************************************ 
		  

See also:

chords A Great Big World - Say Something chords Lady Gaga - Always Remember Us This Way chords Cyndi Lauper - True Colors chords Maroon 5 - This Love chords Maroon 5 - Memories chords Backstreet Boys - I Want It That Way
e-chords

Other versions:

keyboards Matheus Ortega - Find Myself keyboards Ortegas - Find Myself keyboards Lucy Rose - Find Myself
auto scroll beats size up size down change color columns
tab show chords e-chords YouTube Clip e-chords hide all tabs e-chords go to top tab

share