Blink 182

home > Blink 182

Online Songs Drum Tab

Blink 182

Difficulty: nolevelnolevel

tuner correct add songbook print version text version save to e-mail
chordsukulelecavacokeyboardtabbassdrummharmonicsflute Guitar Pro
chords

Online Songs

Year: 2001 - Album: Take off Your Pants and Jacket

(Blink 182)

  		

Online Songs by Blink 182
Drummer-Travis Barker
Tabbed by- Andrew Hambleton

Intro
 |------8x--------|  
R|----------------| 
S|----------------| 
B|----------------| 

C|X---------------|----------------|----------------|----------------| 
R|----xxx-x---x-xx|x-x-x-x-x-x-x-x-|B---x-x-x-F-----|x-x-x-x-x-x-x-x-| 
B|0---------------|----------------|----------------|----------------| 

R|F---x-x-x---x-x-|x-x-x-x-x-x-x-x-|F---x-x-x-x-x-x-|B---------------| 

R|----------------| 
S|----------------| 
B|----------------| 

Pt 1 
C|X---------------|----------------|----------------|----------------| 
R|----x---x---x---|x---x---x---x---|x---x---x---x---|x---x---x---x---| 
S|--o---o---o---o-|--o---o---o---o-|--o---o---o---o-|--o---o---o---o-| 
B|0---0---0---0---|----0---0---0---|----0---0---0---|----0---0---0---| 

C|----------------|----------------|----------------|--X---X---X-----| 
R|x---x---x---x---|x---x---x---x---|x---x---x---x---|----------------| 
S|--o---o---o---o-|--o---o---o---o-|--o---o---o---o-|o---------------| 
B|0---0---0---0---|----0---0---0---|----0---0---0---|--0---0---0-----|

 Verse 1 
C|X---------------|----------------|----------------|----------------| 
H|----x---x---x---|x---x---x---x---|x---x---x---x---|--X---X---X---X-| 
S|--o---o---o---o-|--o---o---o---o-|--o---o---o---o-|--o---o---o---o-| 
B|0---0---0---0---|0---0---0---0---|0---0---0---0---|0---------------| 

H|----x---x---x---|x---x---x---x---|x---x---x---x---|X-------X-------| 
S|--o---o---o---o-|--o---o---o---o-|--o---o---o---o-|----oooo--------| 
B|0---0---0---0---|0---0---0---0---|0---0---0---0---|0-------0-------|

Pt 2 
C|X---------------|----------------|----------------|----------------| 
R|----x---x---x---|x---x---x---x---|x---x---x---x---|x---x---x---x---| 
S|--o---o---o---o-|--o---o---o---o-|--o---o---o---o-|--o---o---o---o-| 
B|0---0---0---0---|----0---0---0---|----0---0---0---|----0---0---0---| 

C|----------------|----------------|----------------|--X---X---X-----| 
R|x---x---x---x---|x---x---x---x---|x---x---x---x---|----------------| 
S|--o---o---o---o-|--o---o---o---o-|--o---o---o---o-|o---------------| 
B|0---0---0---0---|----0---0---0---|----0---0---0---|--0---0---0-----|

Verse 2 
C|X---------------|----------------|----------------|----------------| 
H|----x---x---x---|x---x---x---x---|x---x---x---x---|--X---X---X---X-| 
S|--o---o---o---o-|--o---o---o---o-|--o---o---o---o-|--o---o---o---o-| 
B|0---0---0---0---|0---0---0---0---|0---0---0---0---|0---------------| 



H|----x---x---x---|x---x---x---x---|x---x---x---x---|X-------X-------| 
S|--o---o---o---o-|--o---o---o---o-|--o---o---o---o-|----oooo--------| 
B|0---0---0---0---|0---0---0---0---|0---0---0---0---|0-------0-------|

Chorus 1
C|#---X---X---X---|#---X---X---X---|#---X---X---X---|#---X---X---X---|  
S|o---o---o---o---|o---o---o---o---|o---o---o---o---|o---o---o---o---|  
B|----------0---0-|----------0---0-|----------0---0-|----------0---0-| 

C|#---X---X---X---|#---X---X---X---|#---X---X---X---|#---X---X---X---|  
S|o---o---o---o---|o---o---o---o---|o---o---o---o---|o---o---o---o---| 
B|----------0---0-|----------0---0-|----------0---0-|----------0---0-| 

 Verse 3 
C|X---------------|----------------|----------------|----------------| 
H|----x---x---x---|x---x---x---x---|x---x---x---x---|--X---X---X---X-| 
S|--o---o---o---o-|--o---o---o---o-|--o---o---o---o-|--o---o---o---o-| 
B|0---0---0---0---|0---0---0---0---|0---0---0---0---|0---------------| 

H|----x---x---x---|x---x---x---x---|x---x---x---x---|X-------X-------| 
S|--o---o---o---o-|--o---o---o---o-|--o---o---o---o-|----oooo--------| 
B|0---0---0---0---|0---0---0---0---|0---0---0---0---|0-------0-------|

Chorus 2 
C|#---X---X---X---|#---X---X---X---|#---X---X---X---|#---X---X---X---| 
S|o---o---o---o---|o---o---o---o---|o---o---o---o---|o---o---o---o---| 
B|----------0---0-|----------0---0-|----------0---0-|----------0---0-| 

C|#---X---X---X---|#---X---X---X---|#---X---X---X---|#---X---X---X---| 
S|o---o---o---o---|o---o---o---o---|o---o---o---o---|o---o---o---o---| 
B|----------0---0-|----------0---0-|----------0---0-|----------0---0-|

   
C|#---X---X---X---|#---------------|#---X---X---X---|#---X---X---X---| 
H|----------------|------------o-=-|----------------|----------------| 
T|----------------|------o---------|----------------|----------------| 
S|o---o---o---o---|o-ooo-----------|o---o---o---o---|o---o---o---o---| 
F|----------------|--------o-o-----|----------------|----------------| 
B|----------0---0-|------------0---|----------0---0-|----------0---0-| 

C|#---X---X---X---|#---------------|#---X---X---X---|#---X---X---X---| 
H|----------------|------------o-=-|----------------|----------------| 
T|----------------|------o---------|----------------|----------------| 
S|o---o---o---o---|o-ooo-----------|o---o---o---o---|o---o---o---o---| 
F|----------------|--------o-o-----|----------------|----------------| 
B|----------0---0-|------------0---|----------0---0-|----------0---0-| 

Bridge
C|------------S---|----S-------S---|X---X---X---X---|X---X---X---X---| 
R|x---x---x-------|x-------x-------|----------------|----------------| 
S|--------o-------|--o-----o-----o-|----o-------o---|----o-------o---| 
B|0---0-----------|0-----0---------|0-0-----0-0---0-|--0-----0-0-----|

C|------------S---|----S-------S---|X---X---X---X---|X---X---X---X---| 
R|x---x---x-------|x-------x-------|----------------|----------------| 
S|--------o-------|--o-----o-----o-|----o-------o---|----o-------o---| 
B|0---0-----------|0-----0---------|0-0-----0-0---0-|--0-----0-0-----|



C|X---------------|----------------|----------------|--X---#---X---#-| 
R|----x-x-x-x-x-x-|x-x-x-x-x-x-x-x-|x-x-x-x-x-x-x-x-|----------------| 
S|----o-------o---|----o-------o---|----o-------o---|--o---o---o---o-| 
B|0-------0-0---0-|0-0---0-0-0---0-|0-0---0-0-0---0-|0---0---0---0---|

C|X---------------|----------------|----------------|----------------| 
R|----x-x-x-x-x-x-|x-x-x-x-x-x-x-x-|x-x-x-x-x-x-x-x-|x-x-x-x-x-x-x---| 
S|----o-------o---|----o-------o---|----o-------o---|----o-------o---| 
B|0-------0-0---0-|0-0---0-0-0---0-|0-0---0-0-0---0-|0-0---0-0-0---0-|

Chorus 2 
C|#---X---X---X---|#---X---X---X---|#---X---X---X---|#---X---X---X---| 
S|o---o---o---o---|o---o---o---o---|o---o---o---o---|o---o---o---o---| 
B|----------0---0-|----------0---0-|----------0---0-|----------0---0-| 

C|#---X---X---X---|#---X---X---X---|#---X---X---X---|#---X---X---X---| 
S|o---o---o---o---|o---o---o---o---|o---o---o---o---|o---o---o---o---| 
B|----------0---0-|----------0---0-|----------0---0-|----------0---0-|

C|#---X---X---X---|#---------------|#---X---X---X---|#---X---X---X---| 
H|----------------|------------o-=-|----------------|----------------| 
T|----------------|------o---------|----------------|----------------| 
S|o---o---o---o---|o-ooo-----------|o---o---o---o---|o---o---o---o---| 
F|----------------|--------o-o-----|----------------|----------------| 
B|----------0---0-|------------0---|----------0---0-|----------0---0-| 

C|#---X---X---X---|#---------------|#---X---X---X---|#---X---X---X---| 
H|----------------|------------o-=-|----------------|----------------| 
T|----------------|------o---------|----------------|----------------| 
S|o---o---o---o---|o-ooo-----------|o---o---o---o---|o---o---o---o---| 
F|----------------|--------o-o-----|----------------|----------------| 
B|----------0---0-|------------0---|----------0---0-|----------0---0-| 

Outro
C|----------------|#---------------| 
T|------------o---|----------------| 
S|o---ooo-o-o-----|----------------|
F|--------------o-|----------------| 
B|----------------|0---------------| 
               
                               ---End---

	  

Search Paypal
auto scroll beats size up size down change color
tab show chords e-chords YouTube Clip e-chords hide all tabs e-chords go to top tab