Blink 182

home > Blink 182

Online Songs Bass Tab

Blink 182

Difficulty: EasyEasy

by meta11eir0

tuner correct add songbook print version text version save to e-mail
chordsukulelecavacokeyboardtabbassdrummharmonicsflute Guitar Pro
chords

Online Songs

Year: 2001 - Album: Take off Your Pants and Jacket

(Blink 182)

  		Blink 182 
Online Songs 
 
~ = Deixe a nota soar 
 
Intro:      			 
G|--------------------------------------- 
D|--------------------------------------- 
A|--00000000-22222222-55555555-77777777-- 
E|--------------------------------------- 
 
(Variašao da introdušao): 
G|--------------------------------------- 
D|--------------------------------------- 
A|--00000000-22222222-55555555-7-7-7-7--- 
E|--------------------------------------- 
 
 
Ponte 1:   			 
G|--------------------------------------- 
D|--------------------------------------- 
A|--00000000-22222222-55555555-7~-------- 
E|--------------------------------------- 
 
Ponte 2:			             
G|--------------------------------------------------------------------------- 
D|---------------------------------------00000000-55555555-22222222-7-7-7-7-- 
E|--------------------------------------------------------------------------- 
A|--00000000-55555555-22222222-77777777-------------------------------------- 
 
 
Verso: 
G|------------------------------------ 
D|------------------------------------ 
A|--00000000-5555-999-777-00000000---- 
E|------------------------------------ 
 
 
Ponte 3: 
G|-------------------------------- 
D|-------------------------------- 
A|--00000000-5555-999-777-0-0-0--- 
E|-------------------------------- 
 
 
Refrao: 
G|----------------------------- 
D|----------------------------- 
A|-0~-5~-7~-5~-5~-0~-7~-5~----- 
E|----------------------------- 
 
 
Ponte 4: 
G|--------------------- 
D|--------------------- 
A|--00--55--0000--7777- 
E|--------------------- 
 
Ponte 5: 
G|--------------------- 
D|--------------------- 
A|-0~-5~-0~-7~--------- 
E|--------------------- 
 
Outro: 
G|------------ 
D|------------ 
A|--55-22-0~-- 
E|------------ 
 
 
Repita os riffs nessa sequencia: 
--------------------------------- 
Intro X3 
Ponte 1 X1 
Ponte 2 X1 
Verso X1 
Ponte 3 X1 
Intro X1 
Verso X1 
Ponte 3 X1 
Refrao X1 
Verso X1 
Ponte 3 X1 
Refrao X2 
Ponte 4 X2 
Ponte 5 X2 
Refrao X2 
Outro X1 
 
 
Divirta-se 
	  

Search Paypal
auto scroll beats size up size down change color hide chords drawings
tab show chords e-chords YouTube Clip e-chords hide all tabs e-chords go to top tab