Wire

Mannequin Chords

Wire

Difficulty: nolevelnolevel

by robepoiel

tuner correct add songbook print version text version save to e-mail
chordsukuleleukulelecavacokeyboardtabbassdrumsharmonicsflute Guitar Pro
close

there isn't a video lesson for this song

chords

Mannequin

  		(0:07) 

G|---------9------------------------------|-----------------------------------| 
D|------------------9----------7?7--------|--7-7-5-5-4-4-2-2------------------| 
A|----7-----------------------------------|-----------------------------------| 
E|-------------7---------5----------------|-----------------------------------| 
(x 3) 

G|------------------------------------------| 
D|------------------------------------------| 
A|----5-5---------------------------4-4-----| 
E|----------5-5-5----3-3-5-5-7-7------------| 
(x 3) 

G|------------------------------------------| 
D|------------------------------------------| 
A|----5-5-----------------------------------| 
E|----------5-5-5----3-3-3-3-3-3------------| 
(x 1) 

G|--------------------------------------------------------------------------------| 
D|--------------------------------------------------------------------------------| 
A|-7-7-7-7-7-7-0------------------------------------------------4-4-5-5-----------| 
E|-------------------7-7-7-7-7-7-7-7-5-5-5-5-5-5-5-5-7-7--------------------------| 
(x 1 ) 

G|--------------------------------------------------------------------------------| 
D|--------------------------------------------------------------------------------| 
A|-7-7-7-7-7-7-0------------------------------------------------------------------| 
E|-------------------7-7-7-7-7-7-7-7-5-5-5-5-5-5-5-5-5-5-5------------------------| 
(x 1) 

G|------------------------------------------| 
D|------------------------------------------| 
A|----5-5---------------------------4-4-----| 
E|----------5-5-5----3-3-5-5-7-7------------| 
(x 3) 


G|-------------------------------------------| 
D|-------------------------------------------| 
A|?5-5---------------------------------------| 
E|--------5-5-3-3-3-3-3-3--------------------| 
( x 1 ) 


G|-----------------------------------------------------------------------------| 
D|-----------------------------------------------------------------------------| 
A|-7-7-7-7-7-7-0------------------------------------------------4-4-5-5--------| 
E|-------------------7-7-7-7-7-7-7-7-5-5-5-5-5-5-5-5-7-7-----------------------| 
(x 2 ) 

G|--------------------------------------------------------------------------------| 
D|--------------------------------------------------------------------------------| 
A|-7-7-7-7-7-7-0------------------------------------------------4-4-5-5-----------| 
E|-------------------7-7-7-7-7-7-7-7-5-5-5-5-5-5-5-5-7-7--------------------------| 
	  

auto scroll beats size up size down change color hide chords simplify chords drawings columns
tab show chords e-chords YouTube Clip e-chords hide all tabs e-chords go to top tab

share with facebook

Search Paypal