Wire

Lowdown

Wire

bass

by  DEIVCAVALCANTI

save to print version add songbook text version e-mail correct tuner
chordsukulelecavacokeyboardtabbassdrumsharmonicaflute Guitar Pro
close

there isn't a video lesson for this song

chords

Lowdown

	  		Verse 
G|---------------|       G|--------------| 
D|---------------|       D|--------------| 29x 
A|-8---5---0-3-0-|  Or   A|-8---5--------| 
E|---------------|       E|-------5-8-5--| 


Chorus 
G|--------------------------------------| 
D|--------------------------------------| 
A|-----------------2-2-2-2-3-3-0-3-5----| 1x 
E|-5-5-5-5-5-5-5-5----------------------| 


Verse 
G|---------------|       G|--------------| 
D|---------------|       D|--------------| 2x 
A|-8---5---0-3-0-|  Or   A|-8---5--------| 
E|---------------|       E|-------5-8-5--| 


Chorus 
G|--------------------------------------| 
D|--------------------------------------| 
A|-----------------2-2-2-2-3-3-0-3-5----| 1x 
E|-5-5-5-5-5-5-5-5----------------------| 


Verse 
G|---------------|       G|--------------| 
D|---------------|       D|--------------| 16x 
A|-8---5---0-3-0-|  Or   A|-8---5--------| 
E|---------------|       E|-------5-8-5--| 


Chorus 
G|--------------------------------------| 
D|--------------------------------------| 
A|-----------------2-2-2-2-3-3-0-3-5----| 1x 
E|-5-5-5-5-5-5-5-5----------------------| 


Verse 
G|---------------|       G|--------------| 
D|---------------|       D|--------------| 2x 
A|-8---5---0-3-0-|  Or   A|-8---5--------| 
E|---------------|       E|-------5-8-5--| 


Chorus 
G|--------------------------------------| 
D|--------------------------------------| 
A|-----------------2-2-2-2-3-3-0-3-5----| 1x 
E|-5-5-5-5-5-5-5-5----------------------| 
		  

See also:

bass Allister - Fraggle Rock bass The Cure - The Lovecats bass American Hi-Fi - Beautiful Disaster bass American Hi-Fi - My Only Enemy bass Bowling For Soup - Surf Colorado bass American Hi-Fi - A Bigger Mood (ver. 2)
e-chords

Other versions:

bass Wire - Lowdown
auto scroll beats size up size down change color hide chords drawings
tab show chords e-chords YouTube Clip e-chords hide all tabs e-chords go to top tab

share