Train

Marry Me

Train

chords Expert expert

by  CATIXAVIER

save to print version add songbook text version e-mail correct tuner
chordsukulelecavacokeyboardtabbassdrumsharmonicaflute Guitar Pro
close

there isn't a video lesson for this song

chords

Marry Me

	  		 
(intro) 

E|---------------------------------------------------------------------------| 
B|--1---------1------1---------1------1-------1-------1--------1-------------| 
G|------0-------0---------0------0--------0-----0---------0------0-----------| 
D|----2-----------2-----2----------2----0---------0-----0----------0---------| 
A|--3------3---------3------3---------2-----2---------2------2---------------| 
E|---------------------------------------------------------------------------| 

E|---------------------------------------------------------------------------| 
B|-1---------1------1--------1------1--------1------1------------------------| 
G|-----0-------0--------0------0--------0------0-----------------------------| 
D|---2-----------2----2----------2----0----------0---------------------------| 
A|-0------0---------0------0-------------------------------------------------| 
E|----------------------------------3------3--------3------------------------| 

 

C                       G               
Forever could never be long enough for me 
Am                    G                F 
To feel like Ive had long enough with you 
C                     G                
Forget the world now we wont let them see 
Am                           F 
But theres one thing left to do 
C                            F 
Now that the weight has lifted 
C                               F 
And love has surely shifted my way 

(Refrão) 
C      G   Am               F 
Marry me, today and every day 
C      G      Am                    		        F 
Marry me, if I ever get the nerve to say hello in this cafe 
F                    C  Csus4  C 
Say you will, say you will  

C                        G                
Together could never be close enough for me 
Am                  G              F 
To feel like I am close enough to you 
C                       G               
You wear white and Ill wear out the words 
Am                         F 
I Love You and Youre Beautiful 
C                     F 
Now that the wait is over 
C                                  F 
And love has finally shown her my way 

(ponte) 
Bb           F		  C             G 
Promise me youll always be happy by my side 
Bb            F	      C		              G     F 
I promise to sing to you when all the music dies 

C    G    Am               F 
Marry me, today and every day 
C     G        Am                    		        F 
Marry me, if I ever get the nerve to say hello in this cafe 
F                     C   Csus4  C 
Say you will, say you will  
F 
Marry me 
		  

Full key step upFull key step up
Half key step upHalf key step up
Half key step downHalf key step down
Full key step downFull key step down
auto scroll beats size up size down change color hide chords simplify chords drawings columns
tab show chords e-chords YouTube Clip e-chords hide all tabs e-chords go to top tab

share