Soundgarden

Applebite

Soundgarden

chords

by  ALESBARRAS

save to print version add songbook text version e-mail correct tuner
chordsukulelecavacokeyboardtabbassdrumsharmonicaflute Guitar Pro
close

there isn't a video lesson for this song

chords

Applebite

Year: 1996 - Album: Down on the Upside

	  		(intro) 
E |----------------| 
A |----------------| 
D |3---2---0-------|x3 
G |-----0---2------| 
B |-4--------------| 
E |----------------| 

(tema) 
E |----------------| 
A |----------------| 
D |3---2---0-------|x3 
G |-----0---2------| 
B |-4--------------| 
E |----------------| 

E |--------------------| 
A |4---3---1---0-------| 
D |---------3----------|x2 
G |-4---0-------2------| 
B |--------------------| 
E |--------------------| 
		  

See also:

chords Pearl Jam - Better Man chords Soundgarden - Black Hole Sun chords Nirvana - All Apologies chords Nirvana - On a Plain chords Pearl Jam - Alive chords Alice in Chains - Down in a hole
e-chords

Other versions:

chords Soundgarden - Applebite
auto scroll beats size up size down change color hide chords simplify chords drawings columns
tab show chords e-chords YouTube Clip e-chords hide all tabs e-chords go to top tab

share