Soundgarden

Rowing

Soundgarden

tabs

by  VICTBORGES

save to print version add songbook text version e-mail correct tuner
chordsukulelecavacokeyboardtabbassdrumsharmonicaflute Guitar Pro
close

there isn't a video lesson for this song

chords

Rowing

	  		

Tuning:  D   A   D   G   B   e 

                                                            
|---15/17~----17\---------------------------------------------------| 
|-------------------------------------------------------------------| 
|----------------------------------------19-------------------------| 
|-----------------------------------12------------------------------| 
|------------------------------12-----------------------------------| 
|-------------------------------------------------------------------| 

Verse 

Chorus 

Riff: 
|--------------------------------------------------| 
|--------------------------------------------------| 
|--------------------------------------------------|x4 
|--------------3-5brp3p0--------3br-br~------------| 
|-----------------------------3--------------------| 
|----5brp3p0-------------5-------------------------| 

Verse 

Riff x4 


Bridge: 
G1: 
|--------------------------------------| 
|--------------------------------------| 
|--------------------------------------| 
|--3---3/7-7---6---5---3-3/5--3-3/5--3-|x4 
|--3---3/7-7---6---5---3-3/5--3-3/5--3-| 
|--3---3/7-7---6---5---3-3/5--3-3/5--3-| 


G2: 
|------------------------------------------------------------------------------| 
|---15~----------------------------------13----15-15------18b--18-15-13-13h15--| 
|----------12p10-10~-----10-12/14-14~-------14---------------------------------| 
|------------------------------------------------------------------------------| 
|------------------------------------------------------------------------------| 
|------------------------------------------------------------------------------| 

|------8----------------------------------------17-20p17h20----20~----------------| 
|--/10---10-10-8h10-8~---17~\---17~-15-15~----------------------------------------| 
|---------------------------------------------------------------------20p19\17~---| 
|---------------------------------------------------------------------------------| 
|---------------------------------------------------------------------------------| 
|---------------------------------------------------------------------------------| 

|---------------------------------------------------------------| 
|--------18-17-17~----------------pb16r-15-15---15-15--15-15----| 
|--19~---------------17-17-\16~---------------------------------| 
|---------------------------------------------------------------| 
|---------------------------------------------------------------| 
|---------------------------------------------------------------| 


Solo: 

 G1  keeps playing bridge riff 

G2: 
|--13b---10-13p10-13p10-----------------------------------------------------------------| 
|-----------------------13p10-13p10----10-------------------------------10-10h13p10-----| 
|-----------------------------------12----12p10-12p10-pb12rp10----10-12-------------12--| 
|--------------------------------------------------------------12-----------------------| 
|---------------------------------------------------------------------------------------| 
|---------------------------------------------------------------------------------------| 

|-----------------------------------------------------------------------------------------------| 
|--10h13p10----10h13p10----10h13p10h13p10----10h13p10h13p10----10h13p10h13p10----10h13p10h13p10-| 
|-----------12----------12----------------12----------------12----------------12----------------| 
|-----------------------------------------------------------------------------------------------| 
|-----------------------------------------------------------------------------------------------| 
|-----------------------------------------------------------------------------------------------| 

|-----------------------------------------------------------------------------------------------| 
|--10h13p10h13p10h13p10-13-13p10----10-13p10----10-13p10-----------------13------10-12b---------| 
|--------------------------------12----------12----------10-12p10-10~----12br-12----12b-10-10~--| 
|-----------------------------------------------------------------------------------------------| 
|-----------------------------------------------------------------------------------------------| 
|-----------------------------------------------------------------------------------------------| 

|----------------13b--10-13p10-13p10---------------------------------------------------------------| 
|-------------10---------------------10-13p10-13p10-10-13br-13--10---------------------------------| 
|-------10-12------------------------------------------------------12br-10---------------------17tr| 
|-0--12--------------------------------------------------------------------12-12/15h17-15-17b--17tr| 
|--------------------------------------------------------------------------------------------------| 
|--------------------------------------------------------------------------------------------------| 

|--------------------------------------------------------------------------------------------------| 
|-17b-17b-17b-r----------------18---18--18---------------------------------------------------------| 
|---------------17p14-14h17----17b-(17)-17r-15-15h17~-17-17-17-17--17p14-18------------------------| 
|------------------------------------------------------------------------17b-17b-15-15-------------| 
|--------------------------------------------------------------------------------------17-15-15h17-| 
|--------------------------------------------------------------------------------------------------| 

|--------------------------------------------------------| 
|--------------------------------------------------------| 
|------18------------------------------------------------| 
|--17b----17r-15----15h17-17-17~-------------------------| 
|----------------17---------------15b-15h17-17~---\------| 
|--------------------------------------------------------| 


 
		  

See also:

tabs Nirvana - smell like teens spirit ( ver. 1 ) tabs Nirvana - Come as you are(correct ver.) tabs Alice in Chains - Angry Chair tabs Nirvana - Blew tabs Nirvana - Something In The Way (Nevermind) tabs Nirvana - smell like teen spirit (ver. 2)
e-chords

Other versions:

tabs Soundgarden - Rowing
auto scroll beats size up size down change color hide chords drawings
tab show chords e-chords YouTube Clip e-chords hide all tabs e-chords go to top tab

share