Roxette

home > Roxette

Heart Shaped Sea Chords

Roxette

Difficulty: BeginnerBeginner

tuner correct add songbook print version text version save to e-mail
chordsukulelecavacokeyboardtabbassdrumsharmonicsflute Guitar Pro
chords

Heart Shaped Sea

  		 
Tuning: D. 
NOTICE: There are some parts there are repeated in the song, so memorize them 
        and play them whenever needed 
 
part 1: D D4 D2    D          part 2: D Am F G  
        D D4 D2/7+ D                  D Am F G 
                                      D Am F G 
part 3: D F G D                       F G 
        D G G D 
        D F G D 
 
with that, you'll be able to play the whole song without the solos; it goes: 
 
 
part 1 
          part 1 
Babe it's time, to tell me that it's over. 
                  C    G2             D D4 D2 D 
Tell me that it's over, It's plain to see. 
         part 1  
And this time, we won't be starting over. 
                  C    G2                         D D4 D2 S 
No crying on your shoulder, into the heart shaped sea. 
 
Am               C               D D4 D2 D 
 Oh, you've been running from my door, 
Am                 C              G                 D D4 D2/7+ D 
 And you've been enchanted by the gracious voice of love. 
 
part 2 
part 1 
          part 1 
Babe it's time, to look me in the eyes. 
                C    G2            D D4 D2 D 
Time to say goodbye, it's clear to me. 
         part 1 
And this time, I won't let you down. 
              C    G2             D D4 D2/7+ D 
You can turn around, I'll set you free. 
 
Am               C               D D4 D2 D 
 Oh, you've been sailing from my shore, 
Am                 C          G               D D4 D2/7+ D 
 And you've been enchanted by some-one from a far. 
 
part 2 
part 3 
G (fingered) - 16/15 28 26 
part 1 
          part 1 
Babe it's time, to gather all the harvest. 
                   C    G2                          D D4 D2/7+ D 
To pray before the winter,and sail the heart shaped sea. 
 
Am               C               D D4 D2 D 
 Oh, you've been running from my love, 
Am                 C              G          D D4 D2/7+ D 
 And you've been enchanted by the powers up above. 
 
part 1 until fade 
 
-------------------------------------------------------------------------------- 
 
HEART SHAPED SEA - ACCOMPANION (guitar, keyboard and piano) 
 
NOTICE: This tablature is written for guitar, as keyboard and piano don't have 
        six strings - translate the notes if you wish to play with them. 
 
INTRO (continuous keyboard) 
e:---3-----3-5-7-5---5-3-2-3-----3-5-3-----3-5-7-5--- 
B:-------5----------------------5---------5------------ 
 
(guitar)   you've been  runnning from my door 
e:------------------------------------------- 
B:-2-0--------------------------------------- 
G:-----2------------------------------0--2--- 
D:-------------------------------0/2--------- 
A:------------------0-2-3-------------------- 
E:------------------------------------------- 
           you've been enchanted by   the gracious voice of love 
e:---------------------------------------- 
B:-2-0------------------------------------ 
G:-----2------------------------------0--- 
D:-------------------------------0/2------ 
A:------------------0-2-3----------------- 
E:---------------------------------------- 
 
INTERLUDE (piano) 
e:---10----10-8---13----13-12-10-8---10----10-8---13----13-12-13-12-8--- 
B:------10-----------13-----------------10-----------13----------------- 
and 
e:---10----10-8---13----13-12-10-8---13-15-17-15-13-12-8-10-----5--- 
B:------10-----------13--------------------------------------------- 
 
(keyboard) ... to look me in the eyes 
e:-------------------------------5-7-3-5--- 
     time to say goodbye    it's clear to me 
e:--------------------5-3--------------------- 
B:----------------------------------------3--- 
(piano) and this time 
e:------------------------10-------- 
B:-----------------10---8----8-10--- 
G:---------------7----7------------- 
(keyboard) I won't let you down 
e:-------------------------5-7-3-5--- 
     you van turn around, I'll set you free 
e:-----------------------5-3-----------5-7------- 
B:-----------------------------------------5-3--- 
 
(keyboard) you've been sailing from my shore 
e:---5-7-8-------------3---------------5--- 
           you've been enchanted by someone from a far 
e:---8-7-5-------------3------------7-------5----3-5-7-3-5--- 
 
INTERLUDE again 
 
PREBREAK (keyboard) 
e:---8-10--- 
 
BREAK (guitar) 
e:---6\5------- 
B:-------8-6--- 
 
NOTICE: The parts are repeated 'till all fades away. 
 
 
 
_______________________________________________________ 
Contribuição: Rafael Gioso Moretti([email protected]) 

	  

Full key step upFull key step up
Half key step upHalf key step up
Half key step downHalf key step down
Full key step downFull key step down
Search Paypal
auto scroll beats size up size down change color hide chords simplify chords drawings columns
tab show chords e-chords YouTube Clip e-chords hide all tabs e-chords go to top tab