Misc Computer Games

home > Misc Computer Game...

Fable The Lost Chapters - Oakvale Chords

Misc Computer Games

Difficulty: nolevelnolevel

by VsWorld

tuner correct add songbook print version text version save to e-mail
chordsukulelecavacokeyboardtabbassdrumsharmonicsflute Guitar Pro
chords

Fable The Lost Chapters - Oakvale

	  
e|-------------------------------------|-------------------------------------| 
B|----3--3-----3--3-----2--2-----2--2--|----5--5-----3--3-----2--2-----2--2--| 
G|----4--4-----4--4-----4--4-----3--3--|----4--4-----4--4-----4--4-----3--3--| 
D|----4--4-----4--4-----4--4-----4--4--|----4--4-----4--4-----4--4-----4--4--| 
A|-2-----------------------------------|----------2--------------------------| 
E|----------3--------0--------2--------|-0-----------------0--------2--------| 


e|-------------------------------------|-------------------------------------| 
B|----3--3-----3--3-----3--3-----2--2--|----3--3-----3--3-----2--2-----2--2--| 
G|----4--4-----4--4-----4--4-----3--3--|----4--4-----2--2-----4--4-----3--3--| 
D|----4--4-----4--4-----4--4-----4--4--|----4--4-----4--4-----4--4-----4--4--| 
A|-2--------0--------------------------|----------5--------4-----------------| 
E|-------------------3--------2--------|-3--------------------------2--------| 


e|-------------------------------------|------------------------------2------| 
B|-------------------------------------|----------------------0---0----------| 
G|-------------------------------------|------------------------3---3--------| 
D|-5--------2--------4--------0--------|-------------------------------------| 
A|-------------------------------------|-4-----------------------------------| 
E|-2--------2--------2--------2--------|-2-----------------------------------| 


e|----------------2--3-----0--2--------|-0-----3--2--------0-----3--2--------| 
B|-0-----2--3--------------------------|----------------3--------------------| 
G|----4--4-----4--4-----4--4-----3--3--|----4--4-----4--4-----4--4-----3--3--| 
D|----4--4-----4--4-----4--4-----4--4--|----4--4-----4--4-----4--4-----4--4--| 
A|-2-----------------------------4--4--|----------2--------------------4--4--| 
E|----------3--------0--------2--------|-0-----------------0--------2--------| 


e|----------7-----5--9-----5--2--------|-3-----7--5--------7-----3--6--------| 
B|-0-----------------------------------|-5-----8--------7--5--------7--------| 
G|----4--4-----4--4--0--4--4-----3--3--|----4--4-----4--4-----4--4-----6--6--| 
D|----4--4-----4--4-----4--4-----4--4--|----4--------4--4-----4--4--4--4--4--| 
A|-2--------0--------------------4--4--|----------5--------4-----------------| 
E|----------------------------2--------|-3-----------------------------------| 
	  

there isn't a video lesson for this song

request
Search
auto scroll beats size up size down change color hide chords simplify chords drawings columns
tab show chords e-chords YouTube Clip e-chords hide all tabs e-chords go to top tab