Cra Band

Roça

Cra Band

cavaco

save to print version add songbook text version e-mail correct tuner
chordsukulelecavacokeyboardtabbassdrumsharmonicaflute Guitar Pro
close

there isn't a video lesson for this song

chords

Roça

	  		TOM A               MUSICA DE VITOR RAFAEL E JRD2

INTRO RIFF 1
     A            E7
E---------5-------7---------------------
B------5-------5-------------------------
G---6-------7---------------------------
D-7-------------------------------------
A--------------------------------------
E---------------------------------------

 RIFF 2           D         A
E----------------10--------12----------
B-------------10--------10----------------
G----------11---------12---------------
D-------12------------------------------
A----------------------------------------
E-----------------------------------------


RIFF 1
6,30 DA MANHA COMEÇO A CAPINAR

CAPINO O DIA INTEIRO NÃO TENHO TEMPO PRA ALMOÇAR

QUANDO EU CHEGO EM CASA VEJO AQUELES MAURICINHO
     D         A            E7      A
COM CARRO IMPORTADO E MEU PINEU FURADO
RIFF 2
DE TARDE EU VOU EMBORA PEGO A MINHA CAROÇA

CHEGO EM CASA CARA COM PINTO PRA FORA
RIFF 2
QUANDO PASSO EM FRANTE AO CONDONDOMINIO

CHAMADO CONDOMINIO CRA

UM MONTE DE MAURICINHOS COMEÇA A MI GOZAR

PASSANDO PELA FRENTE UM CAIPIRA VAGANDO

COM A MINHA CAROÇA E DOIS BOI PUCHANDO

SOLO(A G)4X
 RIFF 1
É MEU IRMÃO EU SOU  MAURICINHO SIM QUAL É O PROBLEMA

TENHO CARRO IMPORTADO CASA NA PRAIA

-CALA BOCA
-O ANDRE PELO AMOR DE DEUS

_______________________________________________________
Contribuição: (meksenasglobalite.com.br)
		  

Full key step upFull key step up
Half key step upHalf key step up
Half key step downHalf key step down
Full key step downFull key step down
hide glossary

See also:

chords Ana Carolina - Vestido Estampado chords Roupa Nova - Dona chords Cazuza - Exagerado chords Roupa Nova - Coração Pirata chords Ana Carolina - Nua chords Roupa Nova - Seguindo No Trem Azul
e-chords

Other versions:

auto scroll beats size up size down change color columns
tab show chords e-chords YouTube Clip e-chords hide all tabs e-chords go to top tab

share