Yazoo

Situation

Yazoo

bass

by  GUSTSILVA

save to print version add songbook text version e-mail correct tuner
chordsukulelecavacokeyboardtabbassdrumsharmonicaflute Guitar Pro
close

there isn't a video lesson for this song

chords

Situation

	  		
Intro  bass rests until 00:26 then 
G|-------------4---|------------4---|------------4---|------------4---| 
D|-----------------|----------------|----------------|----------------| 
A|-4-4--2-2-2----2-|-4-4--2-2-2---2-|-4-4--2-2-2---2-|-4-4--2-2-2---2-| 
E|-----------------|----------------|----------------|----------------| 

Verse one "blue eyed dressed for every situation" 
G|------------4---|------------4---|------------4---|--------|----------------|---------------| 
A|----------------|----------------|----------------|---------|-----------4---|-----------6---| 
A|-4-4--2-2-2---2-|-4-4--2-2-2---2-|-4-4--2-2-2---2-|-4-4-4-4-|---------------|---------------| 
E|----------------|----------------|----------------|---------|-2-2-2-2-2---2-|-4-4-4-4-4---4-| 

00:47 "move out, don't mess around" 
G|--------------4-6-|--------------4-6-|--------------4-6-|--------------| 
D|----------4-6-----|----------4-6-----|----------4-6-----|----------4-6-| 
A|-4-4-4--6---------|-4-4-4--6---------|-4-4-4--6---------|--6-6-6-------| 
E|------------------|------------------|------------------|--------------| 

00:57 Pre verse 
G|-------------4---|------------4---|------------4---|------------4---| 
D|-----------------|----------------|----------------|----------------| 
A|-4-4--2-2-2----2-|-4-4--2-2-2---2-|-4-4--2-2-2---2-|-4-4--2-2-2---2-| 
E|-----------------|----------------|----------------|----------------| 

Verse two "I remember only for an hour" 
G|------------4---|------------4---|------------4---|--------|----------------|---------------| 
A|----------------|----------------|----------------|---------|-----------4---|-----------6---| 
A|-4-4--2-2-2---2-|-4-4--2-2-2---2-|-4-4--2-2-2---2-|-4-4-4-4-|---------------|---------------| 
E|----------------|----------------|----------------|---------|-2-2-2-2-2---2-|-4-4-4-4-4---4-| 

01:16 "move out, don't mess around" 
G|--------------4-6-|--------------4-6-|--------------4-6-|--------------| 
D|----------4-6-----|----------4-6-----|----------4-6-----|----------4-6-| 
A|-4-4-4--6---------|-4-4-4--6---------|-4-4-4--6---------|--6-6-6-------| 
E|------------------|------------------|------------------|--------------| 

01:23 Pre verse 
G|-------------4---|------------4---|------------4---|------------4---| 
D|-----------------|----------------|----------------|----------------| 
A|-4-4--2-2-2----2-|-4-4--2-2-2---2-|-4-4--2-2-2---2-|-4-4--2-2-2---2-| 
E|-----------------|----------------|----------------|----------------| 

G|-------------4---|------------4---|------------4---|------------4---| 
D|-----------------|----------------|----------------|----------------| 
A|-4-4--2-2-2----2-|-4-4--2-2-2---2-|-4-4--2-2-2---2-|-4-4--2-2-2---2-| 
E|-----------------|----------------|----------------|----------------| 

G|-------------4---|------------4---|------------4---|------------4---| 
D|-----------------|----------------|----------------|----------------| 
A|-4-4--2-2-2----2-|-4-4--2-2-2---2-|-4-4--2-2-2---2-|-4-4--2-2-2---2-| 
E|-----------------|----------------|----------------|----------------| 

01:48 Verse three "now he's in control he is my lover" 
G|------------4---|------------4---|------------4---|--------|----------------|---------------| 
A|----------------|----------------|----------------|---------|-----------4---|-----------6---| 
A|-4-4--2-2-2---2-|-4-4--2-2-2---2-|-4-4--2-2-2---2-|-4-4-4-4-|---------------|---------------| 
E|----------------|----------------|----------------|---------|-2-2-2-2-2---2-|-4-4-4-4-4---4-| 

02:00 "move out, don't mess around" 
G|--------------4-6-|--------------4-6-|--------------4-6-|--------------| 
D|----------4-6-----|----------4-6-----|----------4-6-----|----------4-6-| 
A|-4-4-4--6---------|-4-4-4--6---------|-4-4-4--6---------|--6-6-6-------| 
E|------------------|------------------|------------------|--------------| 

G|--------------4-6-|--------------4-6-|--------------4-6-|--------------| 
D|----------4-6-----|----------4-6-----|----------4-6-----|----------4-6-| 
A|-4-4-4--6---------|-4-4-4--6---------|-4-4-4--6---------|--6-6-6-------| 
E|------------------|------------------|------------------|--------------| 

Playout 
G|-------------4---|------------4---|------------4---|------------4-----| 
D|-----------------|----------------|----------------|------------------| 
A|-4-4--2-2-2----2-|-4-4--2-2-2---2-|-4-4--2-2-2---2-|-4-4--2-2-2---2-4-| 
E|-----------------|----------------|----------------|------------------| 
		  

See also:

bass A Flock Of Seagulls - Telecommunication bass Soft Cell - Tainted Love bass A Flock Of Seagulls - Windows bass Metronomy - Trouble bass Yazoo - Situation bass Goldfrapp - Utopia
e-chords

Other versions:

bass Jeff Beck - Situation bass Yazoo - Situation bass Escape The Fate - Situations bass Sugababes - Situations Heavy
auto scroll beats size up size down change color hide chords drawings
tab show chords e-chords YouTube Clip e-chords hide all tabs e-chords go to top tab

share