The Unicorns

Jellybones

The Unicorns

bass

by  IRONPOWER4EVER

save to print version add songbook text version e-mail correct tuner
chordsukulelecavacokeyboardtabbassdrumsharmonicaflute Guitar Pro
close

there isn't a video lesson for this song

chords

Jellybones

	  		
Main Riff 
G|---2-2-0---0-5-2-0--------0-2------------0-2-----------------| 
D|---------3------------0-3-----0-0----0-3-----0-0-------------| 
A|-------------------------------------------------------------| 
E|-------------------------------------------------------------| 

G|---7-7-5---5-10-7-5--------0-2------------0-2----------------| 
D|---------8-------------0-3-----0-0----0-3-----0-0------------| 
A|-------------------------------------------------------------| 
E|-------------------------------------------------------------| 

G|---2-2-2---3-3-3-2-----0-2-------0----------------0-2--------| 
D|---------3---------3-3-----2-2-3---3-3-3-3-3--0-3-----0-0----| 
A|-------------------------------------------------------------| 
E|-------------------------------------------------------------| 
		  

See also:

bass Black Eyed Peas - where is the love bass Drake bell - Makes Me Happy Bass bass Michael Jackson - Beat it bass Collective Soul - Simple bass Yellowcard - Down on my head bass Yellowcard - Believe
e-chords

Other versions:

bass The Unicorns - Jellybones
auto scroll beats size up size down change color hide chords drawings
tab show chords e-chords YouTube Clip e-chords hide all tabs e-chords go to top tab

share