The Corrs

home > The Corrs

Only When I Sleep Bass Tab

The Corrs

Difficulty: EasyEasy

tuner correct add songbook print version text version save to e-mail
chordsukulelecavacokeyboardtabbassdrumsharmonicsflute Guitar Pro
chords

Only When I Sleep

Year: 1998 - Album: Works

(Corrs / Leiber / Peterson / Shanks)

  		

Intro:
G|---------------------------------------|
D|---------------------------------------|
A|-2-2--2-2-0-0--0-0---------------0-0-0-|
E|------------------0-0--0-0--3-3-3------|

Verse:
G|-----------------------------------------------------|
D|-----------------------------------------------------|
A|-2-2--2-0-0--2-------------2-2--2-0-0--2-------------|
E|--------------0-0--0-0-2-0--------------0-0--0-0-2-0-|

Pre-chorus:
G|-------------------------------------------------|
D|----------0-0--0-0--------0-0--0-0---------------|
A|------------------------------------------1-2-4--|
E|-3-3--3-3---------3-3--3-3--------3-3--3-3-----2-|

Chorus:
G|-----------------------------------------------------------------------|
D|-----------------------------------------------------------------------|
A|-2-2--2-2-0-0--0-0------------0-0--0-2-2--2-2--0-0--0-0------------0-0-|
E|------------------0-0--0-0-3-3-------------------------0-0--0-0-3-3----|

Bridge:
G|-----------------------|
D|-----------------------|
A|----0-0-2-2-0-0-1-2-4--|
E|-3-3-----------------2-|

	  

Search Paypal
auto scroll beats size up size down change color hide chords drawings
tab show chords e-chords YouTube Clip e-chords hide all tabs e-chords go to top tab