Sugababes

Situations Heavy

Sugababes

bass

by  TERR_SCHMITZ

save to print version add songbook text version e-mail correct tuner
chordsukulelecavacokeyboardtabbassdrumsharmonicaflute Guitar Pro
close

there isn't a video lesson for this song

chords

Situations Heavy

	  		
 Intro 
G|-----------------------------------------------------------------------------------------| 
D|-----------------5-------------------------------------------5--5---5---5--5---7--7--5---| 
A|---5---5--5--8-------8-----------------5--5---8---8--8---8-------------------------------| 
E|-------------------------8---8--8--8-----------------------------------------------------|    x2 

 Verse 
G|-----------------------------------------------------------------------------------------| 
D|-----------------5-------------------------------------------5--5---5---5--5---7--7--5---| 
A|---5---5--5--8-------8-----------------5--5---8---8--8---8-------------------------------| 
E|-------------------------8---8--8--8-----------------------------------------------------|    x2 

 Bridge 
G|------------------------------------------------------------------| 
D|---------------5---------------5-------------------------------5--| 
A|---8--8--8--8------8--8--8--8------7--7--7--7--5---7--7--7--7-----| 
E|------------------------------------------------------------------|    x2 

 Chorus 
G|----------------------------------------------------------------------------------| 
D|---7---7--7--7--7--5--------------------------------------------------------5--5--| 
A|---------------------------------------5---8---8--8--8--8--8---7---7--7--7--------| 
E|-----------------------8---8--8--8--8---------------------------------------------| 

G|----------------------------------------------------------------------------------| 
D|---7---7--7--7--7--5-------------------------------------------5---5--5--5--5--5--| 
A|---------------------------------------5---8---8--8--8--8--8----------------------| 
E|-----------------------8---8--8--8--8---------------------------------------------| 

 Instrumental 
G|----------------------------------------------------------------------------------| 
D|---7---7--7--7--7--5------------------------------------5--5--5---5--5--7--7--5---| 
A|-------------------------------------5--5---8--8--8--8----------------------------| 
E|-----------------------8---8--8--8------------------------------------------------| 

 Verse 
G|-----------------------------------------------------------------------------------------| 
D|-----------------5-------------------------------------------5--5---5---5--5---7--7--5---| 
A|---5---5--5--8-------8-----------------5--5---8---8--8---8-------------------------------| 
E|-------------------------8---8--8--8-----------------------------------------------------|    x2 

 Bridge 
G|------------------------------------------------------------------| 
D|---------------5---------------5-------------------------------5--| 
A|---8--8--8--8------8--8--8--8------7--7--7--7--5---7--7--7--7-----| 
E|------------------------------------------------------------------|    x2 

 Chorus 
G|----------------------------------------------------------------------------------| 
D|---7---7--7--7--7--5--------------------------------------------------------5--5--| 
A|---------------------------------------5---8---8--8--8--8--8---7---7--7--7--------| 
E|-----------------------8---8--8--8--8---------------------------------------------| 

G|----------------------------------------------------------------------------------| 
D|---7---7--7--7--7--5-------------------------------------------5---5--5--5--5--5--| 
A|---------------------------------------5---8---8--8--8--8--8----------------------| 
E|-----------------------8---8--8--8--8---------------------------------------------| 

 Instrumental 
G|-----------------------------------------------------------------------------------| 
D|---7---7--7--7--7--5---------------------------------------------------------------| 
A|--------------------------------------------8--8--8--8--8--8---7---7--7---7--7--7--| 
E|-----------------------8---8--8--8---8--8------------------------------------------| 

No bass 2:27-2:52 

 Bridge 
G|------------------------------------------------------------------| 
D|---------------5---------------5-------------------------------5--| 
A|---8--8--8--8------8--8--8--8------7--7--7--7--5---7--7--7--7-----| 
E|------------------------------------------------------------------|    x2 

Chorus  x3 
G|----------------------------------------------------------------------------------| 
D|---7---7--7--7--7--5--------------------------------------------------------5--5--| 
A|---------------------------------------5---8---8--8--8--8--8---7---7--7--7--------| 
E|-----------------------8---8--8--8--8---------------------------------------------| 

G|----------------------------------------------------------------------------------| 
D|---7---7--7--7--7--5-------------------------------------------5---5--5--5--5--5--| 
A|---------------------------------------5---8---8--8--8--8--8----------------------| 
E|-----------------------8---8--8--8--8---------------------------------------------| 
		  

See also:

bass Mcfly - Please, Please bass Mcfly - Too Close For Comfort bass Sting - Fields Of Gold bass Mcfly - Obviously bass Simply Red - Come To My Aid bass Mcfly - Everybody Knows Bass
e-chords

Other versions:

bass Sugababes - Situations Heavy
auto scroll beats size up size down change color hide chords drawings
tab show chords e-chords YouTube Clip e-chords hide all tabs e-chords go to top tab

share