Speedy Ortiz

No Below

Speedy Ortiz

bass

by  BOMBAXXX

save to print version add songbook text version e-mail correct tuner
chordsukulelecavacokeyboardtabbassdrumsharmonicaflute Guitar Pro
close

there isn't a video lesson for this song

chords

No Below

	  		
Intro 
Just vocals and guitar. Drums at the end. 
"You didn't know me..." 
G|------------------------------------------------| 
D|------------------------------------------------| 
A|------------------------------------------------| 
E|------------------------------------------------| 

G|------------------------------------------------| 
D|------------------------------------------------| 
A|------------------------------------------------| 
E|------------------------------------------------| 

"Except for this one thing..." 
Drums for a few beats the end 

G|------------------------------| 
D|------------------------------| 
A|------------------------------| 
E|------------------------------| 

Instrumental 
Bass comes in (0:33) 
G|------------------------------------------|------------------------------------------| 
D|------------------------------------------|------------------------------------------| 
A|-4---------0---------0--------------------|-4---------0---------0--------------------| 
E|------0---------0---------0----2-2-2/5-5-5|------0---------0---------0----2-2-2/5-5-5| 

Verse  
G|----------------------------------------|----------------------------------------| 
D|----------------------------------------|----------------------------------------| 
A|-4--------------4--4-0----4--4----------|-4--------------4--4-0----4--4----------| 
E|------0----2-------------------2--2-5---|------0----2-------------------2--2-5---| 

G|--------------------------------| 
D|--------------------------------| 
A|-------------------5------------| 
E|-2-2-2-0-0-0-5-5-5--------------| 

Chorus 
G|------------------------------------------|------------------------------------------| 
D|------------------------------------------|------------------------------------------| 
A|-4---------0---------0--------------------|-4---------0---------0--------------------| 
E|------0---------0---------0----2-2-2/5-5-5|------0---------0---------0----2-2-2/5-5-5| 

Verse 
G|-------------------------------------------------| 
D|-------------------------------------------------| 
A|-4-2h4-4-----------------------------------------| 
E|---------0-0-0-2-2-2/9--9-7\5--5-7/9--9\2--2/5---| 


G|-------------------------------------------------| 
D|-------------------------------------------------| 
A|-4-2h4-4-----------------------------------------| 
E|---------0-0-0-2-2-2/9--9-7\5--5-7/9--9\2--2/5---| 


G|--------------------------------| 
D|--------------------------------| 
A|-------------------5------------| 
E|-2-2-2-0-0-0-5-5-5--------------| 

Chorus 
G|------------------------------------------|------------------------------------------| 
D|------------------------------------------|------------------------------------------| 
A|-4---------0---------0--------------------|-4---------0---------0--------------------| 
E|------0---------0---------0----2-2-2/5-5-5|------0---------0---------0----2-2-2/5-5-5| 

Instrumental 
G|------------------------------------------|------------------------------------------| 
D|------------------------------------------|------------------------------------------| 
A|-4---------0---------0--------------------|-4---------0---------0--------------------| 
E|------0---------0---------0----2-2-2/5-5-5|------0---------0---------0----2-2-2/5-5-5| 

Verse 
G|--------------------------------------| 
D|--------------------------------------| 
A|-4--------------4--4-0----4--4--------| 
E|------0----2-------------------2--2-5-| 



************************************ 

| /  Slide up 
| h  Hammer-on 
| \  Slide down 

************************************ 
		  

See also:

bass Deep Purple - Black Night bass Deep Purple - Smoke On The Water (ver. 3) bass Deep Purple - Highway Star bass Deep Purple - Burn bass Deep Purple - Into The Fire bass Deep Purple - Ted The Mechanic
e-chords

Other versions:

bass Speedy Ortiz - No Below
auto scroll beats size up size down change color hide chords drawings
tab show chords e-chords YouTube Clip e-chords hide all tabs e-chords go to top tab

share