Speedy Ortiz

No Below

Speedy Ortiz

tabs

by  SABRJOAO

save to print version add songbook text version e-mail correct tuner
chordsukulelecavacokeyboardtabbassdrumsharmonicaflute Guitar Pro
close

there isn't a video lesson for this song

chords

No Below

	  		

Verse: 

Guitar 1: 
e|---------4----------4---------4----------4----------------4--------4---------4------4-| 
B|-------5----------5---------5----------5----------------5--------5---------5-------5--| 
G|--------------------------------------------------------------------------------------| 
D|--------------------------------------------------------------------------------------| 
A|----4--------------------4-------------------------4---------------------4------0-----| 
E|---------------2--------------------2-------------------------2-----------------------| 

Guitar 2: 
e|----4-------5-------2------5----------------------------------------------------| 
B|----4-------5-------2------5----------------------------------------------------| 
G|----5-------6-------3------6----------------------------------------------------| 
D|----6-------7-------4------7----------------------------------------------------| 
A|----6-------7-------4------7----------------------------------------------------| 
E|----4-------5-------2------5----------------------------------------------------| 

Chorus: 

e|-------------------------------------------------------------------------------------------| 
B|-------------------------------------------------------------------------------------------| 
G|--------------1-----------1h2--1-----------------2--1--------------------------------------| 
D|-----------2--------------------4--6--4---------------4--6--4------------------------------| 
A|---2--4----------------------------------7-----------------------7-------------------------| 
E|--------------------------------------------4-----------------------4------4/6----6/9------| 

 
		  

See also:

tabs Deep Purple - Smoke On The Water tabs Ira! - Núcleo Base ( Acústico MTV) tabs Deep Purple - When a Blind man cries tabs Deep Purple - Time To Kill tabs Ira! - O Girassol (intro) tabs Deep Purple - Smoke On The Water (solo Ver.2)
e-chords

Other versions:

tabs Speedy Ortiz - No Below
auto scroll beats size up size down change color hide chords drawings
tab show chords e-chords YouTube Clip e-chords hide all tabs e-chords go to top tab

share