Slipknot

home > Slipknot

Everythings Ends Bass Tab

Slipknot

Difficulty: BeginnerBeginner

by maknim

tuner correct add songbook print version text version save to e-mail
chordsukulelecavacokeyboardtabbassdrumsharmonicsflute Guitar Pro
chords

Everythings Ends

  		Everythings ends: 
*#= Repeat # times  
* - mute note  
 
C :----------------|-----------------|----------------|----------------| 
G :----------------|-----------------|----------------|----------------| 
D :----------------|-----------------|----------------|----------------| 
A :----------------|10---*-----------|----------------|----------------| 
 
C :----------------|----------------|----------------|----------------| 
G :----------------|----------------|----------------|----------------| 
D :----------------|----------------|----------------|----------------| 
A :----------------|----------------|----------------|----------------| 
 
C :----------------|------------------------|----------------| 
G :----------------|------------------------|----------------| 
D :----------------|------------------------|----------------| 
A :----------------|10-10-10-10-10-10-10-10-|9-9-9-9-9-9-9-9-| 
 
C :----------------|----------------|----------------|----------------| 
G :----------------|----------------|----------------|----------------| 
D :----------------|----------------|----------------|----------------| 
A :3-3-3-3-3-3-3-3-|6-6-6-6-6-6-6-6-|5-5-5-5-5-5-5-5-|5-5-5-5-5-5-3-3-| 
 
C :----------------|----------------||*----------------| 
G :----------------|----------------|| ----------------| 
D :----------------|----------------|| ----------------| 
A :1-1-1-1-1-1-1-1-|1-1-1-1-1-1-0-0-|| 0-1-4-0-0---0-1-| 
 
C :----------------|----------------|----------------|----------------| 
G :----------------|----------------|----------------|----------------| 
D :----------------|----------------|----------------|----------------| 
A :4-0-0---0---4---|0---6---0---0-1-|4-0-0---1-1-1-1-|0-1-4-0-0---0-1-| 
 
C :----------------|----------------|----------------*1| 
G :----------------|----------------|---------------- || 
D :----------------|----------------|---------------- || 
A :4-0-0---0---4---|0---6---0---0-1-|4-0-0---1-1-1-1- || 
 
C :----------------|----------------|----------------|----------------| 
G :----------------|----------------|----------------|----------------| 
D :----------------|----------------|----------------|----------------| 
A :0-1-2-0-0-1-2-*-|--1-2-*---1-2-*-|0-1-2-0-0-1-2-*-|--1-2-*---1-2-*-| 
 
C :----------------|----------------|----------------|----------------| 
G :----------------|----------------|----------------|----------------| 
D :----------------|----------------|----------------|----------------| 
A :0-1-2-0-0-1-2-*-|--1-2-*---1-2-*-|0-1-2-0-0-1-2-*-|--1-2-*---1-2-*-| 
 
C :----------------|----------------|----------------|----------------| 
G :----------------|----------------|----------------|----------------| 
D :----------------|----------------|----------------|----------------| 
A :0-1-2-0-0-1-2-*-|--1-2-*---1-2-*-|0-1-2-0-0-1-2-*-|--1-2-*---1-2-*-| 
 
C :----------------|----------------|----------------|----------------| 
G :----------------|----------------|----------------|----------------| 
D :----------------|----------------|----------------|----------------| 
A :0-1-2-0-0-1-2-*-|--1-2-*---1-2-*-|0-1-2-0-0-1-2-*-|--1-2-*---1-2-*-| 
 
C :----------------|----------------|----------------|----------------| 
G :----------------|----------------|----------------|----------------| 
D :----------------|----------------|----------------|----------------| 
A :0-*-------------|----------------|0-0-0-6---0-6---|0-0-0-1---0-1---| 
 
C :------------------------|----------------|----------------| 
G :------------------------|----------------|----------------| 
D :------------------------|----------------|----------------| 
A :10-10-10-10-10-10-10-10-|9-9-9-9-9-9-9-9-|3-3-3-3-3-3-3-3-|  
 
C :----------------|----------------|----------------|----------------| 
G :----------------|----------------|----------------|----------------| 
D :----------------|----------------|----------------|----------------| 
A :6-6-6-6-6-6-6-6-|5-5-5-5-5-5-5-5-|5-5-5-5-5-5-3-3-|1-1-1-1-1-1-1-1-|  
 
C :----------------|------------------------|----------------| 
G :----------------|------------------------|----------------| 
D :----------------|------------------------|----------------| 
A :1-1-1-1-1-1-0-0-|10-10-10-10-10-10-10-10-|9-9-9-9-9-9-9-9-| 
 
C :----------------|----------------|----------------|----------------| 
G :----------------|----------------|----------------|----------------| 
D :----------------|----------------|----------------|----------------| 
A :3-3-3-3-3-3-3-3-|6-6-6-6-6-6-6-6-|5-5-5-5-5-5-5-5-|5-5-5-5-5-5-3-3-| 
 
C :----------------|----------------|----------------|----------------| 
G :----------------|----------------|----------------|----------------| 
D :----------------|----------------|----------------|----------------| 
A :1-1-1-1-1-1-1-1-|1-1-1-1-1-1-1-1-|0-1-4-0-0---0-1-|4-0-0---0---4---| 
 
C :----------------|----------------|----------------|----------------| 
G :----------------|----------------|----------------|----------------| 
D :----------------|----------------|----------------|----------------| 
A :0---6---0---0-1-|4-0-0---1-1-1-1-|0-1-4-0-0---0-1-|4-0-0---0---4---| 
 
C :----------------|----------------|----------------|----------------| 
G :----------------|----------------|----------------|----------------| 
D :----------------|----------------|----------------|----------------| 
A :0---6---0---0-1-|4-0-0---1-1-1-1-|0-1-2-0-0-1-2-*-|--1-2-*---1-2-*-| 
 
C :----------------|----------------|----------------|----------------| 
G :----------------|----------------|----------------|----------------| 
D :----------------|----------------|----------------|----------------| 
A :0-1-2-0-0-1-2-*-|--1-2-*---1-2-*-|0-1-2-0-0-1-2-*-|--1-2-*---1-2-*-| 
 
C :----------------|----------------|----------------|----------------| 
G :----------------|----------------|----------------|----------------| 
D :----------------|----------------|----------------|----------------| 
A :0-1-2-0-0-1-2-*-|--1-2-*---1-2-*-|0-1-2-0-0-1-2-*-|--1-2-*---1-2-*-| 
 
C :----------------|----------------|----------------|----------------| 
G :----------------|----------------|----------------|----------------| 
D :----------------|----------------|----------------|----------------| 
A :0-1-2-0-0-1-2-*-|--1-2-*---1-2-*-|0-1-2-0-0-1-2-*-|--1-2-*---1-2-*-| 
 
C :----------------|----------------|----------------|----------------| 
G :----------------|----------------|----------------|----------------| 
D :----------------|----------------|----------------|----------------| 
A :0-1-2-0-0-1-2-*-|--1-2-*---1-2-*-|----------------|----------------| 
 
C :----------------|----------------|------------------------| 
G :----------------|----------------|------------------------| 
D :----------------|----------------|------------------------| 
A :0-0-0-6---0-6---|0-0-0-1---0-1---|10-10-10-10-10-10-10-10-| 
 
C :----------------|----------------|----------------|----------------| 
G :----------------|----------------|----------------|----------------| 
D :----------------|----------------|----------------|----------------| 
A :9-9-9-9-9-9-9-9-|3-3-3-3-3-3-3-3-|6-6-6-6-6-6-6-6-|5-5-5-5-5-5-5-5-| 
 
C :----------------|----------------|----------------| 
G :----------------|----------------|----------------| 
D :----------------|----------------|----------------| 
A :5-5-5-5-5-5-3-3-|1-1-1-1-1-1-1-1-|1-1-1-1-1-1-0-0-| 
 
C :------------------------|----------------|----------------| 
G :------------------------|----------------|----------------| 
D :------------------------|----------------|----------------| 
A :10-10-10-10-10-10-10-10-|9-9-9-9-9-9-9-9-|3-3-3-3-3-3-3-3-| 
 
C :----------------|----------------|----------------|----------------| 
G :----------------|----------------|----------------|----------------| 
D :----------------|----------------|----------------|----------------| 
A :6-6-6-6-6-6-6-6-|5-5-5-5-5-5-5-5-|5-5-5-5-5-5-3-3-|1-1-1-1-1-1-1-1-| 
 
C :----------------|------------------------|----------------| 
G :----------------|------------------------|----------------| 
D :----------------|------------------------|----------------| 
A :1-1-1-1-1-1-0-0-|10-10-10-10-10-10-10-10-|9-9-9-9-9-9-9-9-| 
 
C :----------------|----------------|----------------|----------------| 
G :----------------|----------------|----------------|----------------| 
D :----------------|----------------|----------------|----------------| 
A :3-3-3-3-3-3-3-3-|6-6-6-6-6-6-6-6-|5-5-5-5-5-5-5-5-|5-5-5-5-5-5-3-3-| 
 
C :----------------|----------------|------------------------| 
G :----------------|----------------|------------------------| 
D :----------------|----------------|------------------------| 
A :1-1-1-1-1-1-1-1-|1-1-1-1-1-1-0-0-|10-10-10-10-10-10-10-10-| 
 
C :----------------|----------------|----------------|----------------| 
G :----------------|----------------|----------------|----------------| 
D :----------------|----------------|----------------|----------------| 
A :9-9-9-9-9-9-9-9-|3-3-3-3-3-3-3-3-|6-6-6-6-6-6-6-6-|5-5-5-5-5-5-5-5-| 
 
C :----------------|----------------|----------------|----------------| 
G :----------------|----------------|----------------|----------------| 
D :----------------|----------------|----------------|----------------| 
A :5-5-5-5-5-5-3-3-|1-1-1-1-1-1-1-1-|1-1-1-1-1-1-0-0-|0---------------| 
 
C :----------------|----------------|----------------|----------------| 
G :----------------|----------------|----------------|----------------| 
D :----------------|----------------|----------------|----------------| 
A :----------------|----------------|----------------|0---1---6---0---| 
 
C :----------------|----------------|----------------|----------------| 
G :----------------|----------------|----------------|----------------| 
D :----3-----3-----|----------------|----3-----3-----|----------------| 
A :0---------------|0---1---6---0---|0---------------|0---1---6---0---| 
 
C :----------------|----------------|----------------|----------------| 
G :----------------|----------------|----------------|----------------| 
D :----3-----3-----|----------------|----3-----3-----|----------------| 
A :0---------------|0---1---6---0---|0---------------|0---1---6---0---| 
 
C :----------------|----------------|----------------|----------------| 
G :----------------|----------------|----------------|----------------| 
D :----------------|----------------|----------------|----------------| 
A :0---1---1---2---|0---1---6---0---|0---1---1---2---|0---1---6---0---| 
 
C :----------------|----------------|----------------|----------------| 
G :----------------|----------------|----------------|----------------| 
D :----------------|----------------|----------------|----------------| 
A :0---1---1---2---|0---1---6---0---|0---1---1---2---|0---1---6---0---| 
 
C :----------------|----------------|----------------|----------------| 
G :----------------|----------------|----------------|----------------| 
D :----3-----3-----|----------------|----3-----3-----|----------------| 
A :0---------------|0---1---6---0---|0---------------|0---1---6---0---| 
 
C :----------------|----------------|----------------|----------------| 
G :----------------|----------------|----------------|----------------| 
D :----3-----3-----|----------------|----3-----3-----|----------------| 
A :0---------------|0---1---6---0---|0---------------|0---1---6---0---| 
 
C :----------------|----------------|----------------|----------------| 
G :----------------|----------------|----------------|----------------| 
D :----3-----3-----|----------------|----------------|----------------| 
A :0---------------|0---1---6---0---|0---------------|0---1---6---0---| 
 
C :----------------|----------------|----------------|----------------| 
G :----------------|----------------|----------------|----------------| 
D :----3-----3-----|----------------|----3-----3-----|----------------| 
A :0---------------|0---1---6---0---|0---------------|0---1---6---0---| 
 
C :----------------|----------------|----------------|----------------| 
G :----------------|----------------|----------------|----------------| 
D :----------------|----------------|----------------|----------------| 
A :0---1---1---2---|0---1---6---0---|0---1---1---2---|0---1---6---0---|  
 
C :----------------|----------------|----------------|----------------| 
G :----------------|----------------|----------------|----------------| 
D :----------------|----------------|----------------|----------------| 
A :0---1---1---2---|0---1---6---0---|0---1---1---2---|0-0-0-6---0-6---| 
 
C :----------------|----------------|----------------|----------------| 
G :----------------|----------------|----------------|----------------| 
D :----------------|----------------|----------------|----------------| 
A :0-0-0-1---0-1---|0-0-0-6---0-6---|0-0-0-1---0-1---|0-0-0-6---0-6---| 
 
C :----------------|----------------|----------------| 
G :----------------|----------------|----------------| 
D :----------------|----------------|----------------| 
A :0-0-0-1---0-1---|0-0-0-6---0-6---|0-0-0-1---0-----| 
 
C :------------------------|----------------|----------------| 
G :------------------------|----------------|----------------| 
D :------------------------|----------------|----------------| 
A :10-10-10-10-10-10-10-10-|9-9-9-9-9-9-9-9-|3-3-3-3-3-3-3-3-| 
 
C :----------------|----------------|----------------|----------------| 
G :----------------|----------------|----------------|----------------| 
D :----------------|----------------|----------------|----------------| 
A :6-6-6-6-6-6-6-6-|5-5-5-5-5-5-5-5-|5-5-5-5-5-5-3-3-|1-1-1-1-1-1-1-1-| 
 
C :----------------|------------------------|----------------| 
G :----------------|------------------------|----------------| 
D :----------------|------------------------|----------------| 
A :1-1-1-1-1-1-0-0-|10-10-10-10-10-10-10-10-|9-9-9-9-9-9-9-9-| 
 
C :----------------|----------------|----------------|----------------| 
G :----------------|----------------|----------------|----------------| 
D :----------------|----------------|----------------|----------------| 
A :3-3-3-3-3-3-3-3-|6-6-6-6-6-6-6-6-|5-5-5-5-5-5-5-5-|5-5-5-5-5-5-3-3-|  
 
C :----------------|----------------|------------------------| 
G :----------------|----------------|------------------------| 
D :----------------|----------------|------------------------| 
A :1-1-1-1-1-1-1-1-|1-1-1-1-1-1-0-0-|10-10-10-10-10-10-10-10-| 
 
C :----------------|----------------|----------------|----------------| 
G :----------------|----------------|----------------|----------------| 
D :----------------|----------------|----------------|----------------| 
A :9-9-9-9-9-9-9-9-|3-3-3-3-3-3-3-3-|6-6-6-6-6-6-6-6-|5-5-5-5-5-5-5-5-| 
 
C :----------------|----------------|----------------| 
G :----------------|----------------|----------------| 
D :----------------|----------------|----------------| 
A :5-5-5-5-5-5-3-3-|1-1-1-1-1-1-1-1-|1-1-1-1-1-1-0-0-| 
 
C :------------------------|----------------|----------------| 
G :------------------------|----------------|----------------| 
D :------------------------|----------------|----------------| 
A :10-10-10-10-10-10-10-10-|9-9-9-9-9-9-9-9-|3-3-3-3-3-3-3-3-| 
 
C :----------------|----------------|----------------|----------------| 
G :----------------|----------------|----------------|----------------| 
D :----------------|----------------|----------------|----------------| 
A :6-6-6-6-6-6-6-6-|5-5-5-5-5-5-5-5-|5-5-5-5-5-5-3-3-|1-1-1-1-1-1-1-1-| 
 
C :----------------|----------------|----------------|----------------| 
G :----------------|----------------|----------------|----------------| 
D :----------------|----------------|----------------|----------------| 
A :1-1-1-1-1-1-0-0-|0-1-4-0-0---0-1-|4-0-0---0---4---|0---6---0---0-1-|  
 
C :----------------|----------------|----------------|----------------| 
G :----------------|----------------|----------------|----------------| 
D :----------------|----------------|----------------|----------------| 
A :4-0-0---1-1-1-1-|0-1-4-0-0---0-1-|4-0-0---0---4---|0---6---0---0-1-|  
 
C :----------------|----------------|----------------|----------------| 
G :----------------|----------------|----------------|----------------| 
D :----------------|----------------|----------------|----------------| 
A :4-0-0---1-1-1-1-|0-1-4-0-0---0-1-|4-0-0---0---4---|0---6---0---0-1-| 
 
C :----------------|----------------|----------------|----------------| 
G :----------------|----------------|----------------|----------------| 
D :----------------|----------------|----------------|----------------| 
A :4-0-0---1-1-1-1-|0-1-4-0-0---0-1-|4-0-0---0---4---|0---6-----------|  
 

	  

Search Paypal
auto scroll beats size up size down change color hide chords drawings
tab show chords e-chords YouTube Clip e-chords hide all tabs e-chords go to top tab