Queen

home > Queen

Under Pressure Bass Tab

Queen

Difficulty: BeginnerBeginner

by Acelot

tuner correct add songbook print version text version save to e-mail
chordsukulelecavacokeyboardtabbassdrumsharmonicsflute Guitar Pro
chords

Under Pressure

Year: 1986 - Album: Classic Queen

(Queen / David Bowie)

	  
Intro: 

G|-------------------------| 
D|--12-12-12--12-12-12-----| 
A|----------------------12-| 
E|-------------------------| (3x) 

G|-----------------------------------------------------------------| 
D|--12-12-12--12-12-12---------------------------------------------| 
A|----------------------12---12/--5-5-5--5-5-5-----4-4-4--4-4-4----| 
E|----------------------------------------------5----------------5-| 

G|---------------------------------------| 
D|---------------------------------------| 
A|---2-2-2--2-2-2--0--0-0-0--0-0-2-0-4-0-| 
E|---------------------------------------| 

G|------------------------------------------------------| 
D|------------------------------------------------------| 
A|-5-5-5--5-5-5-----4-4-4--4-4-4----2-2-2--2-2-2--0-15\-| 
E|---------------5----------------5---------------------| 

G|-------------------------| 
D|-------------------------| 
A|----0-0-0--0-0-2-0-4-0---| 
E|-----------------------3-| 

Verse: 

G|----------------------------------|------------| 
D|------------------5-5-5-5-5-5-5-5-|-(3x)-------| 
A|----------------------------------|------------| 
E|--3-3-3-3-3-3-3-3-----------------|------2-3-5-| 
	  

there isn't a video lesson for this song

request
Search
auto scroll beats size up size down change color hide chords drawings
tab show chords e-chords YouTube Clip e-chords hide all tabs e-chords go to top tab