Pulley

Cashed In

Pulley

bass

by  JOV-CORREA

save to print version add songbook text version e-mail correct tuner
chordsukulelecavacokeyboardtabbassdrumsharmonicaflute Guitar Pro
close

there isn't a video lesson for this song

chords

Cashed In

	  		Intro (x1)                          Verse (3x) 
G:----------------------------------------------------------------| 
D:----------------------------------------------------------------| 
A:---------------------------------8-8-8--------------------------| 
E:-1-1-1-4-4-4-6-6-6-666-6-6-6-6---------4-4-4-6-6-6-666-6-6-6-6--| 
                                  (Guitar plays note D# instead of G# here) 

Pre-Chorus ("it was at my expense...")(x1) 
G:----------------------------------------------------------------| 
D:----------------------------------------------------------------| 
A:----------6-6-6-------6-6-6-------------------------------------| 
E:-13-13-13-------6-6-6--------1-1-1--4-4-4--6-6-6-666-6-6-6-6----| 
                                            ("Cashed in...") 

Chorus 
G:--------------------------------------------7-77-77-7-7-7------------------------------------------------ 
D:------------------------------3-33-33-3-3-3-------------------------------------------------------------- 
A:--6-66-66-6-6-6-1-11-11-1-1-1-----------------------------6-66-66-6-6-6--5-55-55-5-5-5------------------| 
E:--------------------------------------------------------------------------------------6-6-6-666-6-6-6-6--- 
     (Guitar plays notes D# D C D D# D A#)                                    "...have some shirts for sale" 

Then it repeats Verse and Pre-Chorus. 

Second Verse (3x) 
Second Pre-Chorus (x1) 

Second Chorus (x2) 
G:--------------------------------------------7-77-77-7-7-7-------------------------------|----------------- 
D:------------------------------3-33-33-3-3-3---------------------------------------------|----------------- 
A:--6-66-66-6-6-6-1-11-11-1-1-1-----------------------------0-0-0---0-0-0---0-0-0---0-0-0-|----------------| 
E:----------------------------------------------------------------------------------------|-6-6-666-6-6-6-6 
                                                       (Guitar plays notes C and A# here) ("cashed in...") 

Then it repeats Verse 

Third Verse (5x) "Started from the bottom, on the botton again...YEAH!" 



Obs: This is the way I figured out and play in my band, but I doubt it is completely precise. 
What is certain for me is that bass plays different notes some times, as noted in parenthesis. Between quotes 
I put the parts of the lyrics sung at the moment. 
		  

Full key step upFull key step up
Half key step upHalf key step up
Half key step downHalf key step down
Full key step downFull key step down
hide glossary

See also:

bass Deep Purple - Smoke On The Water bass Deep Purple - Burn Ver.(2) bass Deep Purple - Burn (ver. 2) bass Deep Purple - Smoke On The Water (ver. 3) bass Deep Purple - Fire Ball bass Deep Purple - Highway Star
e-chords

Other versions:

bass Pulley - Cashed In
auto scroll beats size up size down change color hide chords drawings
tab show chords e-chords YouTube Clip e-chords hide all tabs e-chords go to top tab

share