Pink Floyd

home > Pink Floyd

Arnold Layne Bass Tab

Pink Floyd

Difficulty: BeginnerBeginner

by swordfishwtr

tuner correct add songbook print version text version save to e-mail
chordsukulelecavacokeyboardtabbassdrumsharmonicsflute Guitar Pro
chords

Arnold Layne

Year: 1971 - Album: Echoes: The Best Of Pink Floyd

  		Standard Tuning 

Gb-|--------------------------------------------------------------------| 
Db-|*------------------------------------------------------------------*| 
Ab-|*------------------------------------------------------------------*| 
Eb-|--3h5-5-5-5--5-5-5-5--5-5-5-5--5-5-5-5--5-5-5-5--5-5-5-5--3-3-3-3---| 

Gb-|------------------------------------------------------------------| 
Db-|*----------------------------------------------------------------*| 
Ab-|*----------------------------------------------------------------*| 
Eb-|--2-2-2-2--1-1-1-1--1-1-1-1--1-1-1-1--1/12-12-12-12--12-12-12-12--| 

Gb-|--------------------------------------------------------------------| 
Db-|*------------------------------------------------------------------*| 
Ab-|*-12-12-12-12--12-12-12-12--10-10-10-10--5-5-5-5-------------------*| 
Eb-|--------------------------------------------------0-0-0-0--0-0-0-0--| 

Gb-|---------------|----------------------------------| 
Db-|---------------|*--------------------------------*| 
Ab-|--7--5---------|*--------------------------------*| 
Eb-|----------5----|--5-5-5--5-5-5-5--5-5-5-5--5-5-5--| 


Second Verse (On the wall, hung a tall mirror...) 
Gb-|-------------------------------------------------------------------| 
Db-|*-----------------------------------------------------------------*| 
Ab-|*-----------------------------------------------------------------*| 
Eb-|--3h5-5-5-5--5-5-5-5--5-5-5-5--5-5-5-5--5-5-5-5--5-5-5-5--3-3-3-3--| 

Gb-|------------------------------------------------------------------| 
Db-|*----------------------------------------------------------------*| 
Ab-|*----------------------------------------------------------------*| 
Eb-|--2-2-2-2--1-1-1-1--1-1-1-1--1-1-1-1--1/12-12-12-12--12-12-12-12--| 

Gb-|-----------------------------------------------------------------------| 
Db-|*---------------------------------------------------------------------*| 
Ab-|*-12-12-12-12--12-12-12-12--10-10-10-10--5-5-5-5----------------------*| 
Eb-|--------------------------------------------------0-0-0-0--0-0--0-0-0--| 

Gb-|----------| 
Db-|----------| 
Ab-|--7--5----| 
Eb-|----------| 


Gb-|----------------------------------5--5-5---------------------------| 
Db-|--5--5-5----------------------------------5--5-5-------------------| 
Ab-|----------5--5-5----------------------------------5--5-5--5-5-5-5--| 
Eb-|------------------5-5-5--5-5-5-5-----------------------------------| 

Gb-|-----------------------------------------------------------------| 
Db-|-----------5-5-5-5-----------2-2-2-2--2-2-2-2--5-5-5-5--5-5-5-5--| 
Ab-|--3-3-3-3-----------5-5-5-5--------------------------------------| 
Eb-|-----------------------------------------------------------------| 

Gb-|--2-2-2-2--2-2-2-2--2-2-2-2--------------------------| 
Db-|-----------------------------0--0-0---5--5--2--2-----| 
Ab-|-----------------------------------------------------| 
Eb-|--------------------------------------------------5--| 


Gb-|-------------------------------------------------------------------| 
Db-|*-----------------------------------------------------------------*| 
Ab-|*-----------------------------------------------------------------*| 
Eb-|--3h5-5-5-5--5-5-5-5--5-5-5-5--5-5-5-5--5-5-5-5--5-5-5-5--5-5-5-5--| 

Gb-|-----------------------------------------------------------------| 
Db-|*---------------------------------------------------------------*| 
Ab-|*---------------------------------------------------------------*| 
Eb-|--5-5-5-5--5-5-5-5--5-5-5-5--5-5-5-5--5-5-5-5--5-5-5-5--5-5-5-5--| 

Gb-|-----------|---------| 
Db-|*---------*|---------| 
Ab-|*---------*|---------| 
Eb-|--5-5-5-5--|--5-5-5--| 


Synthesizer Solo 
Gb-|----------------------------------5--5-5---------------------------| 
Db-|--5--5-5----------------------------------5--5-5-------------------| 
Ab-|----------5--5-5----------------------------------5--5-5--5-5-5-5--| 
Eb-|------------------5-5-5--5-5-5-5-----------------------------------| 

Gb-|-----------------------------------------------------------------| 
Db-|-----------5-5-5-5-----------2-2-2-2--2-2-2-2--5-5-5-5--5-5-5-5--| 
Ab-|--3-3-3-3-----------5-5-5-5--------------------------------------| 
Eb-|-----------------------------------------------------------------| 

Gb-|--2-2-2-2--2-2-2-2--2-2-2-2--------------------------| 
Db-|-----------------------------0--0-0---5--5--2--2--2--| 
Ab-|-----------------------------------------------------| 
Eb-|-----------------------------------------------------| 


Third Verse (Now he's caught, a nastier sort of person...) 
Gb-|-------------------------------------------------------------------| 
Db-|*-----------------------------------------------------------------*| 
Ab-|*-----------------------------------------------------------------*| 
Eb-|--3h5-5-5-5--5-5-5-5--5-5-5-5--5-5-5-5--5-5-5-5--5-5-5-5--3-3-3-3--| 

Gb-|------------------------------------------------------------------| 
Db-|*----------------------------------------------------------------*| 
Ab-|*----------------------------------------------------------------*| 
Eb-|--2-2-2-2--1-1-1-1--1-1-1-1--1-1-1-1--1/12-12-12-12--12-12-12-12--| 

Gb-|-----------------------------------------------------------------------| 
Db-|*---------------------------------------------------------------------*| 
Ab-|*-12-12-12-12--12-12-12-12--10-10-10-10--5-5-5-5----------------------*| 
Eb-|--------------------------------------------------0-0-0-0--0-0--0-0-0--| 

Gb-|----------| 
Db-|----------| 
Ab-|--7--5----| 
Eb-|----------| 


Gb-|----------------------------------5--5-5---------------------------| 
Db-|--5--5-5----------------------------------5--5-5-------------------| 
Ab-|----------5--5-5----------------------------------5--5-5--5-5-5-5--| 
Eb-|------------------5-5-5--5-5-5-5-----------------------------------| 

Gb-|-----------------------------------------------------------------| 
Db-|-----------5-5-5-5-----------2-2-2-2--2-2-2-2--5-5-5-5--5-5-5-5--| 
Ab-|--3-3-3-3-----------5-5-5-5--------------------------------------| 
Eb-|-----------------------------------------------------------------| 

Gb-|--2-2-2-2--2-2-2-2--2-2-2-2--------------------------| 
Db-|-----------------------------0--0-0---5--5--2--2-----| 
Ab-|-----------------------------------------------------| 
Eb-|--------------------------------------------------5--| 


Gb-|-------------------------------------------------------------------| 
Db-|*-----------------------------------------------------------------*| 
Ab-|*-----------------------------------------------------------------*| 
Eb-|--3h5-5-5-5--5-5-5-5--5-5-5-5--5-5-5-5--5-5-5-5--5-5-5-5--5-5-5-5--| 

Gb-|-----------------------------------------------------------------| 
Db-|*---------------------------------------------------------------*| 
Ab-|*---------------------------------------------------------------*| 
Eb-|--5-5-5-5--5-5-5-5--5-5-5-5--5-5-5-5--5-5-5-5--5-5-5-5--5-5-5-5--| 

Gb-|-----------|---------| 
Db-|*---------*|---------| 
Ab-|*---------*|---------| 
Eb-|--5-5-5-5--|--5-5-5--| 


Gb-|-----------------------------------------------| 
Db-|-----------------------------------------------| 
Ab-|-----------------------------------------------| 
Eb-|--5--5----3--3----5--5--5----5-----------------| 
	  

Search Paypal
auto scroll beats size up size down change color hide chords drawings
tab show chords e-chords YouTube Clip e-chords hide all tabs e-chords go to top tab