Pepper

Use Me

Pepper

bass

by  TUIRANEVES

save to print version add songbook text version e-mail correct tuner
chordsukulelecavacokeyboardtabbassdrumsharmonicaflute Guitar Pro
close

there isn't a video lesson for this song

chords

Use Me

	  		Verso: 
G--------------------1111--------| 
D---------------2--------4-2-----| 
A---------0-2-4---4-4--------4---| 
E-0-2-4-0------------------------| 

Refrão: 

G--------------------11---------------------1---1--------| 
D-----------------------4-2---2------------2------2------| 
A-----4444---0-2-3-4--------4---4---3--444----4-----4----| 
E-2-2-----2----------------------4-----------------------| 
		  

auto scroll beats size up size down change color hide chords drawings
tab show chords e-chords YouTube Clip e-chords hide all tabs e-chords go to top tab

share