Pearl Jam

home > Pearl Jam

Can't Keep Bass Tab

Pearl Jam

Difficulty: AdvancedAdvanced

by Apocalyptica

tuner correct add songbook print version text version save to e-mail
chordsukulelecavacokeyboardtabbassdrumsharmonicsflute Guitar Pro
chords

Can't Keep

Year: 2002 - Album: Riot Act

  		Transcribed by: Ross Duncan 
email: [email protected] 
 
Intro: 
cd time 0:19 
|----------------------------| 
|----------------------------| 
|-9-7------9-7---------9-7---| 
|-----8--------8-10--------8-| 
 
 
Verse/Chorus: 
|------------------------------------------------------------------------------------- 
|------------------------------------------------------------------------------------- 
|-9-7--------10-9-7-----------9-7--------10-9-7-----------10--10--10--10-10-10--10/12- 
|-----8-10-8--------8-10-8-10-----8-10-8--------8-10-8-10----------------------------- 
 
 
---------------------------------------------------|--------|--------| 
---------------------------------------------------|--------|--------| 
-10--10--10--10-10-10--12-10--10--10--10-10-10--12-|---10---|-/15----| 
---------------------------------------------------|--------|--------| 
                                                      repeat   repeat 
 
 
Repeat the verse/Chorus a few times. easy. 
	  

Search Paypal
auto scroll beats size up size down change color hide chords drawings
tab show chords e-chords YouTube Clip e-chords hide all tabs e-chords go to top tab