Mcfly

I'll Be Okay

Mcfly

bass

by  LAY98MCFLY0408

save to print version add songbook text version e-mail correct tuner
chordsukulelecavacokeyboardtabbassdrumsharmonicaflute Guitar Pro
close

there isn't a video lesson for this song

chords

I'll Be Okay

	  		Intro: 
|-11---9---11---9---11--9-|-11---9---11---9---11--9----| 
|-------------------------|----------------------------| 
|-------------------------|----------------------------| 
|-------------------------|----------------------------| 

Verse: 
|-----------------------------------------------------------------| 
|-----------------------------------------------------------------| 
|-5-------5-5----5-----2------2-2----2-2--------------------------| 
|----5-5-------5----5----2-2-------2------2---2--2--2--0-2-3--3-3-| 

|--------------------------------------------------------| 
|--------------------------------------------------------| 
|---------5------5-5---5-5------5-------5-5---5------2---| 
|-3-3-2-----5-5------5-----5-------5-5------5----5-------| 

|---------------------------------------------------------------| 
|---------------------------------------------------------------| 
|------2-2---2-2-----------------------------------5----------5-| 
|-2-2------2-----2---2--2--2--0-2-3--3-3--3-3-2------5--5-5-5---| 

Chorus: 
|--------------------------------------------| 
|--------------------------------------------| 
|--------5----------7----4--7-5--4-----------| 
|-3--3-7---7-5--5-5---5-------------7--5-7---| 

|-----------------------------------------------| 
|-----------------------------------------------| 
|-5-----------5--------------5---5-5--5-5--5-5--| 
|---5--3--3-7---7-5--5-5-5s7--------------------| 

|---------------------------------------------------| 
|---------------------------------------------------| 
|-3--3--3-2-0------------------5-------5-5----5-----| 
|-------------3--3--3-2-0---------5-5-------5----5--| 

Verse 2: 
|-------------------------------------------------------------| 
|-12--------9----------------------12-------12-12----------12-| 
|--------------------9----10----------12-12-------12-12h14----| 
|-------------------------------------------------------------| 

|----------------------------------------------------------------| 
|----------------------------------------------------------------| 
|-5-------5-5----5-----2------2-2----2-2-------------------------| 
|----5-5-------5----5----2-2-------2-----2---2--2--2--0-2-3--3-3-| 

|-------------------------------| 
|-------------------------------| 
|-----------5--------5----------| 
|-3-3-2---------5---------5-----| 

Chorus: 
|------------------------------------------------| 
|------------------------------------------------| 
|-5-----------5----------7----4--7-5--4----------| 
|---5--3--3-7---7-5--5-5---5-------------7--5-7--| 

|--------------------------------------------| 
|--------------------------------------------| 
|-5-----------5--------------5--5------------| 
|---5--3--3-7---7-5--5-5-5s7------5-2-5-5--5-| 

|---------------------------------------------------------------| 
|---------------------------------------------------------------| 
|-5---5--------------------------------2--0-0------------7-7--7-| 
|---5---5--0--2--3--3-0-3--2--2-2-2------------0--0-0-0---------| 

|----------------------------------------------------| 
|----------------------------------------------------| 
|-3--3--3-2-0------------------5-------5-5----5-5----| 
|-------------3--3--3-2-0---------5-5-------5-----5--| 

Bridge: (You're not alone...) (1:53) 
|-------------------------------------------------------| 
|-------------------------------------------------12-12-| 
|-13-13-13-13-13-13-13-13-15-15-15-15-15-15-15-15-------| 
|-------------------------------------------------------| 

|-------------------------------------------------------| 
|-12-12-12-12-12-12-14-14-14-14-14-14-14-14-------------| 
|-------------------------------------------8-8-8-8-8-8-| 
|-------------------------------------------------------| 

|---------------------------------------| 
|---------------------------------------| 
|-8-8-10-10-10-10-10-10-10-10-----------| 
|---------------------------------------| 

(2:02) 
|------------------------------------| 
|------------------------------------| 
|-5-----5-----5-----5-----5-----5----| 
|----5-----5----5------5-----5----5--| 

-Chorus Instrumental- 

Breakdown: (2:19) 
|--------------------------------------------------------| 
|---------------------10-10-10-10-10-10-10-10------------| 
|-15h17-15h17-15h17--------------------------10-10-10----| 
|--------------------------------------------------------| 

|---------------------------------------------------| 
|----------------8-8-8-8-8-8-8-8-7-7-7-7-7-7-7-7-7--| 
|-10-10-10-10-10------------------------------------| 
|---------------------------------------------------| 

Chorus: 
|-------------------------------------------------| 
|-------------------------------------------------| 
|-5-----------5----------7----4--7-5--4-----------| 
|---5--3--3-7---7-5--5-5---5-------------7--5-7---| 

|--------------------------------------------| 
|--------------------------------------------| 
|-5-----------5--------------5--5------------| 
|---5--3--3-7---7-5--5-5-5s7------5-2-5-5--5-| 

|--------------------------------------------------------------| 
|--------------------------------------------------------------| 
|-5---5--------------------------------2--0-0------------7-7---| 
|---5---5--0--2--3--3-0-3--2--2-2-2------------0--0-0-0--------| 

|----------------------------------------------------| 
|----------------------------------------------------| 
|-3--3--3-2-0------------------5-------5-5----5-5----| 
|-------------3--3--3-2-0---------5-5-------5-----5--| 

|---------------------------------------------------| 
|---------------------------------------------------| 
|-3--3--3-2-0------------------5-------5-5----5-----| 
|-------------3--3--3-2-0---------5-5-------5----5--| 

|-------------| 
|-------------| 
|-3-------10--| 
|-------------| 

Outro: (3:09) 
|-11---9---11---9---11--9----------| 
|----------------------------12----| 
|----------------------------------| 
|----------------------------------| 

Legend: 
s - Slide 
h - Hammer-on
		  

auto scroll beats size up size down change color hide chords drawings
tab show chords e-chords YouTube Clip e-chords hide all tabs e-chords go to top tab

share