Maroon 5

Rag Doll Bass Tab

Maroon 5

Difficulty: nolevelnolevel

by bombaXXX

tuner correct add songbook print version text version save to e-mail
chordsukulelecavacokeyboardtabbassdrumsharmonicsflute Guitar Pro
close

there isn't a video lesson for this song

request
chords

Rag Doll

Year: 2004 - Album: Songs About Jane

  		
Intro 
 (0:21) 
G|----------------------------------------------| 
D|-------3-3~-----------------------------------| 
A|-----3----------------------------------------| 
E|--1~------------------------------------------| 

G|-----4-------------------------------------------| 
D|---------------------4~-------------------55~----| 
A|--2~----2~---------4--------------------5--------| 
E|---------------2~----------5~--------3~----------| 

G|-------3~---------------------------------------| 
D|-----3-----------5-7~---------------------------| 
A|--1~--------------------------------------------| 
E|--------------5~--------------------------------| 

            How you feeling... 
G|--------------------------------------------------| 
D|------------2-4~--------5-7~----------5~----------| 
A|--2~--------------------------------5-------5-----| 
E|---------2~----------5~----------3~---------------| 

G|----1-3~---------------------------------------| 
D|------------------5-7~-------------------------| 
A|--1~-------6-8---------------------------------| 
E|---------------5~------------------------------| 

G|-----4------------------------------------------| 
D|--------------------4------------------5-7~-----| 
A|--2~----2~---------------------2-4--------------| 
E|----------------2~-----2~----------5~-----------| 

G|--------------------1-3~--------------------------| 
D|------3-5~------------------------5-7-------------| 
A|---------------0-1~--------6-8--------------------| 
E|---3~--------------------------5~-----------------| 

Cause now i see... 
G|----------------------------------------------------| 
D|--------7~----------------------------5--5----------| 
A|--4-5~-------4~--7-9---------7~----------------0-7~-| 
E|-5-------------------7~---9--------3~--33----2------| 

G|-------------------------------------------------| 
D|------7-9-7--------------------7--------4--------| 
A|---7/9-----9-7---------------7-------------------| 
E|----------------77~---5-77~------22~-----1-22~---| 

G|-------------------------------------------------| 
D|------------7~------7~---------5~-----4~---------| 
A|--9-7------------------------5-------4-------2---| 
E|------55~-------55---------3--------2------------| 

Guitar play`s and bass in 2:11 
G|------------2-4-2---------------9-11-9------------| 
D|----0---2/4-------4-----7---7/11-------11-9-------| 
A|--2-----------------------------------------------| 
E|--------------------------------------------------| 

                                                    2:34 
G|-----------------------------3-----3-----------------| 
D|---7~-----7~------5~-----------1/3---------7~------7-| 
A|-0-----00-------5-------0-1~---------------------7---| 
E|--------------3-------------------------5------55----| 

G|------------------------------------------------| 
D|--------7-----9---------7-9---------------------| 
A|----5-7---9-7-------7/9----9--------7--9-10-9---| 
E|----------------------------------0-------------| 

G|----------------------------------------------------| 
D|-----------------7-9-7------------------------------| 
A|-----0--7----7/9-------9-7--------------------------| 
E|---2-----------------------9-8----------------------| 

2:51 
G|----------------------------------------------------| 
D|-----9-7~------9-7~------4------4-2------7~------7~-| 
A|---------------------------1-4-1--------------------| 
E|--77---------77--------22--------------55----55-----| 

G|--------------------------------------------------| 
D|-----5~--------4----------------------------------| 
A|----5--------4------------------------------------| 
E|--3--------2--------------------------------------| 

G|-------------------------------------------------------------------| 
D|-----9-7~-----9-7~-----4-------4-2-----7~-----7~------5~-----4~----| 
A|-------------------------1-4-1----------------------5------4-----2-| 
E|--77------77--------22--------------55-----55----3------2----------| 

solo piano 
G|-----------2-4-2-----------9-11-11-9------------------| 
D|-----0-2-4-------4----7/11-----------11---/7---9-7----| 
A|--2-------------------------------------0----0--------| 
E|------------------------------------------------------| 

G|------------3--2-3-6-3-----------------------------| 
D|-----5--0-------------3-----7-----7---7------------| 
A|---5-------1---------------------------------------| 
E|-3------------------------5-----5---5--------------| 

guitar solo(3:49) 
G|-----------------------------9---------------------| 
D|---7------------9-----9/---------------------------| 
A|-5---5-7--7-5----9-7-------7---5/7-9-10/-----0-7-8-| 
E|-------------7-----------------------------2-------| 

G|-----------------------------------------------| 
D|------7-9-7--------7---------------------------| 
A|--7/9-------9-7--5--5-7-9----------------------| 
E|-----------------------------------------------|X2 

Start singing 
G|-------------------------------------------------------------------| 
D|-----9-7~-----9-7~-----4-------4-2-----7~-----7~------5~-----4~----| 
A|-------------------------1-4-1----------------------5------4-------| 
E|--77------77--------22--------------55-----55----3------2----------|X2 

G|----------2-4-2-----------9-11-11-9--------------------| 
D|----0-2-4-------4----7/11-----------11----7--9-7-5-----| 
A|--2-------------------------------------0----------5---| 
E|-------------------------------------------------------| 

G|-------------------------------------------------| 
D|------5------4-2-4-2-----------------------------| 
A|----5------4-----------(2)-----------------------| 
E|--3------2---------------------------------------|X2 



************************************ 

| ~    Vibrato 
| /    Slide up 
| (n)  Ghost note 

************************************ 
	  

Search Paypal
auto scroll beats size up size down change color hide chords drawings
tab show chords e-chords YouTube Clip e-chords hide all tabs e-chords go to top tab

share with facebook