Marcus Miller

home > Marcus Miller

Power Bass Tab

Marcus Miller

Difficulty: ExpertExpert

by diegobass

tuner correct add songbook print version text version save to e-mail
chordsukulelecavacokeyboardtabbassdrumsharmonicsflute Guitar Pro
chords

Power

	  Intro (00:00) 
                                          
G||------------------| 
D||------------------| 
A||------------------| 
E||------------------| 
                                                                  
|--7----4---2----------4--4------|----------7----7----2-4------2-2--| 
|--7----------4-2------------0-2-|--4-0-7-7----9---7------2-4-------| 
|-----------------5-2------------|----------------------------------| 
|--7-----------------------------|----------------------------------| 
 
 
                                                                    
|--7----4---2----------4--4------|----------7----7-----------------| 
|--7----------4-2------------0-2-|--4-0-7-7----9---7------6-----7--| 
|-----------------5-2------------|---------------------------------| 
|--7-----------------------------|--------------------0-4----5-----| 
 
 
                                                                      
|--7----4---2----------4---7----|--------7----7----2-4------2-2-2-2--| 
|--7----------4-2---------------|----7-7----9---7------2-4-----------| 
|-----------------5-2---------7-|--9---------------------------------| 
|--7----------------------------|------------------------------------| 
 
 
                                                                     
|--7----4---2----------4--4------|----------7----7----2-4-4--7--9---| 
|--7----------4-2------------0-2-|--4-0-7-7----9---7------------11--| 
|-----------------5-2------------|----------------------------------| 
|--7-----------------------------|----------------------------------| 
 
 
Melody (00:46) 
                                                        
|--9---------9--9--7-----7-|---7-7-9-11---------7--9---| 
|--11--------10----9--9----|-----------------9-----11--| 
|--------------------------|---------------------------| 
|--------------------------|---------------------------| 
 
 
                                                                  
--9---9-7-7--------9--9--7-----7-|------------------------7--9--| 
--11---------9--9--10----9--9--9-|----9--9--7-9-9----9-7--------| 
---------------------------------|--------------7---------------| 
---------------------------------|------------------------------| 
 
 
                                                                  
--9-11--11--------7-9--7--6----|--6-7--6-7-6-4---2-------6--7-6-| 
--------9---12--9------------7-|---------------------2-4--------| 
-------------------------------|--------------------------------| 
-------------------------------|--------------------------------| 
 
 
                                                                   
--4--------2----------4--4------|------2-2-7--4-7------4-2--7-9-|| 
-------------4-2------------0-2-|--4-0------------7--7---4---11-|| 
-------2---------5-2------------|-------------------------------|| 
--------------------------------|-------------------------------|| 
 

	  

there isn't a video lesson for this song

request
Search
auto scroll beats size up size down change color hide chords drawings
tab show chords e-chords YouTube Clip e-chords hide all tabs e-chords go to top tab