Marcus Miller

Mr. pastorius

Marcus Miller

bass Expert expert

by  DIEGOBASS

save to print version add songbook text version e-mail correct tuner
chordsukulelecavacokeyboardtabbassdrumsharmonicaflute Guitar Pro
close

there isn't a video lesson for this song

chords

Mr. pastorius

	  		 
 
          t t                  
L G|------------19-19-18h19H-------------|-------17------15h17p15p14p15--| 
E D|---------------------17-----(17)\16--|-18-19-14----------------------| 
F A|----------------------0--------------|-------------------------------| 
T E|------8-6----------------------------|-------15--15------------------| 
  B|-------------------------------------|-------------------------------| 
  |                                       
  |                                        
  |    t                           t  
R G|--14/19------------------------------|-------------------------------| 
I D|--14/20------------------------------|-------------------------------| 
G A|-----------------------------(0)/5---|-------------------------------| 
H E|-------------------------------------|-------------------------------| 
T B|-------------------------------------|-------------------------------| 
    Bar 1 
 
 
                               t           t     t   t   t    t 
G|--(15)H----------|------/20H-----------------|-19------19H---------- 
D|--------16--13H--|--17-----------------------|-----15--------------- 
A|--------0H-------|---------------------------|---------------------- 
E|-----------------|-----------15----------15H-|-------------15------- 
B|-----------------|---------------------------|---------------------- 
 |  
 | 
 |                                  t  t                        t  t 
G|-----------------|---------------------------|---------------------- 
D|-----------------|---------------------------|---------------------- 
A|-----------------|-------------------21H-----|-------------------22- 
E|-----------------|----------------22---------|----------------22---- 
B|-----------------|---------------------------|---------------------- 
  Bar 3 
 
 
    t        t 
G---------------|--17p15--/12H----------|-/11-----\10-----\9-----------| 
D---------------|-----------------------|------------------------------| 
A---------------|-----------------------|------------------------------| 
E--15-------15H-|---------/11H----------|-/10-----\9------\8------6----| 
B---------------|-----------------------|------------------------------| 
 | 
 | 
 |    t  t                       t            t       t       t 
G---------------|-----------------------|-----16p-----18p-----14/19----| 
D---------------|-----------------------|-----16p-----18p-----14/20----| 
A--------22H----|----------------18\13--|------------------------------| 
E-----22--------|-----------------------|------------------------------| 
B---------------|-----------------------|------------------------------| 
 
 
 
G|--19-17-------17--19h17---------------|---------16/17H------| 
D|--------20-17------------17---(17)\16-|--18-19--13/14H------| 
A|-------------------------0------------|---------------------| 
E|--------------------------------------|---------14/15H------| 
B|--------------------------------------|---------------------| 
 | 
 | 
 |                               t                         t 
G|--------------------------------------|---------------------| 
D|--------------------------------------|---------------------| 
A|------------------------------(0)/5---|---------------------| 
E|--------------------------------------|---------------------| 
B|--------------------------------------|------------------8--| 
  Bar 8 
   
                                                   t        t 
G|---15/17p14h15H------(15)\12--|-----17-19--20H----------------| 
D|-----------------16--(16)\13--|--17---------------------------| 
A|-----------------0------------|-------------------------------| 
E|------------------------------|-----------------15--------15H-| 
B|------------------------------|-------------------------------| 
 | 
 |  
 |                                                     t  t 
G|------------------------------|-------------------------------| 
D|------------------------------|-------------------------------| 
A|------------------------------|------------------------21H----| 
E|------------------------------|---------------------22--------| 
B|------------------------------|-------------------------------| 
  Bar 10 
 
                         t        t          t 
G|--19----/19-19-19-19H--------------------------| 
D|-----16----------------------------------------| 
A|-----------------------------------------------| 
E|-----------------------15-------15---------15H-| 
B|-----------------------------------------------| 
 | 
 |  
 |                          t  t      t  t 
G|-----------------------------------------------| 
D|-----------------------------------------------| 
A|-----------------------------22--------22H-----| 
E|--------------------------22--------22---------| 
B|-----------------------------------------------| 
  Bar 12 
  
   
              t                                        t  t  t   t 
G|--17p15\7H-------------------|----------|--5/10--10--10-12-13H------ 
D|-----------------------------|----------|--5/10--10----------------- 
A|-----------------------------|----------|--3/8---8------------------ 
E|------------8H---------------|--10\-----|----------------------11H-- 
B|-----------------------------|-------3--|--------------------------- 
 |                                          Strum  
 |                                        (spanish style) 
 |                t 
G|-----------------------------|----------|--------------------------- 
D|-----------------------------|----------|--------------------------- 
A|----------------13/17\15\13--|----------|--------------------------- 
E|-----------------------------|----------|--------------------------- 
B|-----------------------------|----------|--------------------------- 
  Bar 13 
 
 
G-----------------------|--12\7p0---8h10------15p(12)--15p(12)-- 
D-----------------------|--------------------------------------- 
A-----------------------|--------------------------------------- 
E--(11)\10H-------------|--------------------------------------- 
B-----------------------|--------------------------------------- 
 |                         P        P 
 | 
 |    t       t  t  t  
G-----------------------|----------------h12H------------------- 
D-----------------------|--------------------------------------- 
A-----------------------|--------------------------------------- 
E----15/19----20-19-18--|--------------------------------------- 
B-----------------------|--------------------------------------- 
  
 
    t  t  t      t  t     t  t t     t t        t 
G--------------------------------------------|------| 
D--------------------------------------------|------| 
A--------10--------10----------10------10----|------| 
E---8--8---------8--------6--6-------6-------|--4---| 
B--------------------------------------------|------| 
 | 
 | 
 |             t       t          t       t 
G--------------------------------------------|-----| 
D-------------12------12----------12------12-|-----| 
A--------------------------------------------|-----| 
E--------------------------------------------|-----| 
B--------------------------------------------|-----| 
 
 
 
G|--/12-15-13p12----12H-----------------------|-\10--------------------- 
D|---------------15---------------------------|-----13-12h13p12p10h12H-- 
A|--------------------------------------------|------------------------- 
E|--------------------------------------------|------------------------- 
B|--------------------------------------------|------------------------- 
 | 
 | 
 |                      t        t        t 
G|----------------------17p(12)--17p(12)------|------------------------ 
D|--------------------------------------------|------------------------ 
A|--------------------------------------------|------------------------ 
E|--------------------------------------------|------------------------ 
B|----------------------------------------16--|------------------------ 
  Bar 18 
  
 
G------------------------------------|--------10h12h15--10H--------| 
D--(12)------------------------------|--10h12----------------------| 
A------------------------------------|-----------------------------| 
E------------------------------------|-----------------------------| 
B------------------------------------|-----------------------------| 
 |                                      P      P         P   
 | 
 |       t  t  t             t   t                            t t  
G------------------------------------|-----------------------------| 
D------------------------------------|-----------------------------| 
A-----------15---------------14------|-----------------------------| 
E--------16----15/16\15/16---15\-3---|-----------------------------| 
B------------------------------------|------------------------8-6--| 
 
 
 
G|---------------------12-15/19H----------------| 
D|------------------13------------17--(17)\16---| 
A|-----------10-13----------------0-------------| 
E|--13-10-11------------------------------------| 
B|----------------------------------------------| 
 | 
 | 
 |                                       t 
G|----------------------------------------------| 
D|----------------------------------------------| 
A|--------------------------------------(0)/5---| 
E|----------------------------------------------| 
B|----------------------------------------------| 
  Bar 21 
 
                  rt           rt            rt    t   t  
G|--13-14---0h7h9-14-9p7p0h7h9-14-9p7p0h7h9-17H-----------| 
D|------------------------------------------------14\-----| 
A|--------------------------------------------------------| 
E|------------------------------------------------15\--3--| 
B|--------------------------------------------------------| 
 |   P P    P 
 | 
 | 
G|--------------------------------------------------------| 
D|--------------------------------------------------------| 
A|--------------------------------------------------------| 
E|--------------------------------------------------------| 
B|--------------------------------------------------------| 
 
 
                                                           t         t 
G|--15h17p15p14h15h17p15H-----(15)\12-\-|----17-19-20H-----------------| 
D|-------------------------16-(16)\13-\-|-17---------------------------| 
A|-------------------------0------------|------------------------------| 
E|--------------------------------------|-----------------15--------15-| 
B|--------------------------------------|------------------------------| 
 | 
 | 
 |                                                      t      t  t 
G|--------------------------------------|------------------------------| 
D|--------------------------------------|--------------22--------------| 
A|--------------------------------------|------------------------21----| 
E|--------------------------------------|---------------------22-------| 
B|--------------------------------------|------------------------------| 
  Bar 23 
  
                                           t       t          t 
G|--19-17--------------------------|-/19H--------------------------| 
D|--------20-19-17-----------------|-------------------------------| 
A|-----------------20-18-17--------|-------------------------------| 
E|--------------------------20-18--|------15-------15--------15H---| 
B|---------------------------------|-------------------------------| 
 | 
 | 
 |                                            t  t     t  t 
G|---------------------------------|-------------------------------| 
D|---------------------------------|-------------------------------| 
A|---------------------------------|------------22-------22H-------| 
E|---------------------------------|---------22-------22-----------| 
B|---------------------------------|-------------------------------| 
  Bar 25 
 
 
     t                             t 
G|---17p15\7H-------------------|-------|---------7-8-10--8-7------------- 
D|------------------------------|-------|--7-8-10-------------10-8-7------ 
A|------------------------------|-------|----------------------------10-8- 
E|-------------8H---------------|--10---|--------------------------------- 
B|------------------------------|-------|--------------------------------- 
 | 
 | 
 |                 t 
G|------------------------------|-------|--------------------------------- 
D|------------------------------|-------|--------------------------------- 
A|-----------------13/17\15\13--|-------|--------------------------------- 
E|------------------------------|-------|--------------------------------- 
B|------------------------------|-------|--------------------------------- 
  Bar 27 
 
 
 
G------------------------------| 
D------------------------------| 
A--6-5h6p5p3h5H-----------(5)--| 
E------------------------------| 
B------------------------------| 
 | 
 | 
 |               t  t 
G------------------------------| 
D------------------------------| 
A------------------------------| 
E------------------------------| 
B---------------10\-3H----(3)--| 
  
 
 
 
 

		  

See also:

bass The Clash - London Calling (ver. 2) bass Cream - Crossroads bass Mudvayne - Not Falling bass Guano Apes - Open Your Eyes (ver. 3) bass Dio - Holy Diver bass Finch - Letters To You - Drop C
e-chords

Other versions:

bass Marcus Miller - Mr. pastorius
auto scroll beats size up size down change color hide chords drawings
tab show chords e-chords YouTube Clip e-chords hide all tabs e-chords go to top tab

share