Lesley gore

home > Lesley gore

Maybe I Know Bass Tab

Lesley gore

Difficulty: nolevelnolevel

by tercmoraes

tuner correct add songbook print version text version save to e-mail
chordsukulelecavacokeyboardtabbassdrumsharmonicsflute Guitar Pro
chords

Maybe I Know

  		
Chorus 1: 
G|------------------------------------------------------------------------| 
D|------------------------------------------------------------------------| 
A|-5---5-5---------------------3---3-3---5---5-5--------8---8-8---6-5-----| 
E|----------6---6-6---3---3-3--------------------6---8----------------8-7-| 

verse 1: 
G|------------------------------------------------------------------| 
D|-------------------------------------------------------------7--7-| 
A|-------5-----7--7---8---10---8---8----8---8----8---8----8--8------| 
E|-5--5-----5-----------------------8--------8--------8-------------| 

Chorus 1: 
G|------------------------------------------------------------------------| 
D|------------------------------------------------------------------------| 
A|-5---5-5---------------------3---3-3---5---5-5---------8---8-8--6-5-----| 
E|----------6---6-6---3---3-3---------------------6---8---------------8-7-| 

verse 2: 
G|------------------------------------------------------------------| 
D|-------------------------------------------------------------7--7-| 
A|-------5-----7--7---8---10---8---8----8---8----8---8----8--8------| 
E|-5--5-----5-----------------------8--------8--------8-------------| 

Chorus 2: 
G|---------------------------------------------------------------| 
D|---------------------------------------------------------------| 
A|-5---5-5---------------------3---3-3---5---5-5---------8---8-8-| 
E|----------6---6-6---3---3-3---------------------6---8----------| 

              (Break) 
G|--------------| 
D|-7--7---------| 
A|------------8-| 
E|------8--8----| 

Bridge: 
    .        .        . 
G|--------------------------------------------| 
D|--------------------------------------------| 
A|-3-3--------5-5--------1-1--------3--3-3--3-| 
E|--------------------------------------------| 

Chorus 3: 
G|-----------------------------------------------------------------------| 
D|-----------------------------------------------------------------------| 
A|-5---5-5---------------------3---3-3---5---5-5---------8---8-8---------| 
E|----------6---6-6---3---3-3---------------------6---8----------8-8-8-8-| 

Interlude & Part verse 3: 
G|------------------------------------------------------------------| 
D|-------------------------------------------------------------7--7-| 
A|-------5-----7--7---8---10---8---8----8---8----8---8----8--8------| 
E|-5--5-----5-----------------------8--------8--------8-------------| 

Chorus 4: 
G|-----------------------------------------------------------------------| 
D|---------------------------------------------------------------7-7-7-7-| 
A|-5---5-5---------------------3---3-3---5---5-5---------8---8-8---------| 
E|----------6---6-6---3---3-3---------------------6---8------------------| 

Outro:                                                      (Song Fade Out) 
G|-----------------------------------------------------------------------| 
D|---------------------------------------------------------------7-7-7-7-| 
A|-5---5-5---------------------3---3-3---5---5-5---------8---8-8---------| 
E|----------6---6-6---3---3-3---------------------6---8------------------| 

Symbols: . Are Pauses 
	  

Search Paypal
auto scroll beats size up size down change color hide chords drawings
tab show chords e-chords YouTube Clip e-chords hide all tabs e-chords go to top tab