Jamiroquai

home > Jamiroquai

Use The Force Bass Tab

Jamiroquai

Difficulty: IntermediateIntermediate

by VsWorld

tuner correct add songbook print version text version save to e-mail
chordsukulelecavacokeyboardtabbassdrumsharmonicsflute Guitar Pro
chords

Use The Force

Year: 1997 - Album: Travelling Without Moving

  		


INTRO 
G|-7-10-7----------------------7--10--7--10--7--10--7--10--7--10--7--10-| 
D|--------10-9-7--------------------------------------------------------| 
A|---------------8------------------------------------------------------| 
E|-----------------8h10/13\(0)------------------------------------------| 

G|-7-10-7-----------------7--10--7--10--7--10--7--10--7--10--7--10---------| 
D|--------10-7-------------------------------------------------------------| 
A|-------------------------------------------------------------------------| 
E|-------------0h2/3/(5)/--------------------------------------------------| 

G|-----------------| 
D|-----------------| 
A|-----------------| 
E|-0h2p0h3p0h4p0h5-| 

VERSE 
G|-------------------------|--------------------------| 
D|----------6--------------|----------6---------------| 
A|-------------------------|--------------------------| 
E|-0-0--x2/4-2--x33-/5\3\2-|-0-0--x2/4-2--x33-/55\3-2-| 

G|--------------------------|--------------------------| 
D|----------6---------7-----|----------6-------x46-----| 
A|--------------------------|---------------------54---| 
E|-0-0--x2/4-2--x3--/5-\3\2-|-0-0--x2/4-2--x33------32-| 

G|-------------------------|--------------------------| 
D|*---------6---------7-5-*|*---------6----------7---*| 
A|*-----------------------*|*------------------------*| 
E|-0-0--x2/4-2--x33-/5-3-2-|-0-0--x2/4-2--x33-2/5-5\2-| 
   Repeat 3 times 

G|--------------------------|-----------------------------| 
D|*---------6---------7----*|----------6------------------| 
A|*------------------------*|-----------------------------| 
E|-0-0--x2/4-2--x33-/5-\3\2-|-0-0--x2/4-2-3-3-5-5-1-1-0-0-| 
                                          e.e e.e e.e e.e 

Chorus ("USE THE FORCE") 
G|---|---|---|---|---|---|---|---| 
D|*--|---|---|---|---|---|---|--*| 
A|*--|---|---|---|---|---|---|--*| 
E|-0-|-3-|-2-|-5-|-0-|-3-|-2-|-1-| 
   w   w   w   w   w   w   w   w 

BRIDGE 
G|-7-10------------------7--10--7--10--7--10-|----------7--10--7--10--| 
D|------7-10---------------------------------|------------------------| 
A|-------------------------------------------|------------------------| 
E|------------0h2/3/(5)/---------------------|-0h2-3-5/---------------| 

G|-10-7-----------7--10--7--10--7--10-|--------------7--10--7--10--7--10-| 
D|------10-7--------------------------|----------------------------------| 
A|-----------7\-----------------------|----------------------------------| 
E|--------------/---------------------|-0h2p0h3p0h5----------------------| 


OUTRO 
G|---|---|---|---|---|---|---|---| 
D|*--|---|---|---|---|---|---|--*| 
A|*--|---|---|---|---|---|---|--*| 
E|-0-|-3-|-2-|-1-|-0-|-3-|-2-|-1-| 
  
	  

Search Paypal
auto scroll beats size up size down change color hide chords drawings
tab show chords e-chords YouTube Clip e-chords hide all tabs e-chords go to top tab