Frank Sinatra

Unforgettable Bass Tab

Frank Sinatra

Difficulty: ExpertExpert

tuner correct add songbook print version text version save to e-mail
chordsukulelecavacokeyboardtabbassdrumsharmonicsflute Guitar Pro
close

there isn't a video lesson for this song

chords

Unforgettable

  		


 
Tabbed By: Pyrobassfiddler

Standard Tuning
Key: >=Hold for 2 counts
        >>= Hold For 4 counts
	
G|--------------|-------------------|
D|--------------|-----------0-2-3---|
A|--------------|----0-2-3----------|
E|---1-1---1-1|-1-3-----------------|

G|-------------------|
D|-------------------|         X19
A|-------------------|
E|1>--1>--1>--1>-----|

G|----------------------------------------|
D|----------------------------------------|
A|-----------02--33---------------------|
E|113----------------3--3----1>>--------|

	  

auto scroll beats size up size down change color hide chords drawings
tab show chords e-chords YouTube Clip e-chords hide all tabs e-chords go to top tab

share with facebook

Search Paypal