Finch

home > Finch

A Man Alone Bass Tab

Finch

Difficulty: nolevelnolevel

by brunblazkowski

tuner correct add songbook print version text version save to e-mail
chordsukulelecavacokeyboardtabbassdrumsharmonicsflute Guitar Pro
chords

A Man Alone

  		
Intro 
G|-------------------------------------------------| 
D|-------------------------------------------------| 
A|0-----0---4-2-0-0-----0---2-4-0------------------| 
D|--4-6---4---------4-6---4-------6-6-6-6-6-6-6-6--| 

G|------------------------------------------------| 
D|------------------------------------------------| 
A|0-----0---4-2-0-0-----0---2-4-0-----------------| 
D|--4-6---4---------4-6---4-------66--66---77-----| 

0:19 
G|-------------------------------------------------------------------| 
D|-------------------------------------------------------------------| 
A|22---22-00-----------22---22-00----------0--22---22-00-------------| 
D|-----------44----4-4------------44~----4---------------44~----4-2--| 

G|-------------------------------------| 
D|-------------------------------------| 
A|--------------------------/12-12-12--| 
D|6-6-6-6-6-6-6-6-6-6-6-6-6/|19-19-19|-| 

G|------------------------------------------------------------| 
D|------------------------------------------------------------| 
A|22---22-00-----------22---22-00----------0--22---22-00------| 
D|-----------44----4-4------------44~----4---------------44~--| 

G|-------------------------------------| 
D|-------------------------------------| 
A|--------------------------/12-12-12--| 
D|6-6-6-6-6-6-6-6-6-6-6-6-6/|19-19-19|-| 

0:56 
G|-------------------------------------------------| 
D|-------------------------------------------------| 
A|0-----0---4-2-0-0-----0---2-4-0---------2-4-0----| 
D|--4-6---4---------4-6---4-------6-6-6-6-------6--| 

G|------------------------------------------------| 
D|------------------------------------------------| 
A|0-----0---4-2-0-0-----0---2-4-0-----------------| 
D|--4-6---4---------4-6---4-------66--66---77-----| 

1:13 
G|---------------------------------------------------------------------| 
D|---------------------------------------------------------------------| 
A|22---22-00-----------22---22-00-------------22---22-00---------------| 
D|-----------44----4-4------------44~---434767-----------44~--4--2--6--| 

G|-------------------------------------| 
D|-------------------------------------| 
A|--------------------------/12-12-12--| 
D|6-6-6-6-6-6-6-6-6-6-6-6-6/|19-19-19|-| 

G|-----------------------------------------------------------| 
D|-----------------------------------------------------------| 
A|22---22-00-----------22---22-00------------22---22-00------| 
D|-----------44----4-4------------44~-------------------44~--| 

G|-------------------------------------| 
D|-------------------------------------| 
A|--------------------------/12-12-12--| 
D|6-6-6-6-6-6-6-6-6-6-6-6-6/|19-19-19|-| 

1:52 
G|-------------------------------------------------| 
D|-------------------------------------------------| 
A|0-----0---4-2-0-0-----0---2-4-0------------------| 
D|--4-6---4---------4-6---4-------6-6-6-6-6-6-6-6--| 

G|-------------------------------------------------| 
D|--------------------------------------------666--| 
A|0-----0---4-2-0-0-----0---2-4-0------------------| 
D|--4-6---4---------4-6---4-------6-6-6-6-6-6------| 

G|-------------------------------------------------| 
D|-------------------------------------------------| 
A|0-----0---4-2-0-0-----0---2-4-0------------------| 
D|--4-6---4---------4-6---4-------6-6-6-6-6-6-6-6--| 

G|-------------------------------------------------------------------| 
D|-------------------------------------------------------------------| 
A|0-----0---4-2-0-0-----0---2-4-0------------------------------------| 
D|--4-6---4---------4-6---4-------6-6-6-6-6-6-6-6-6-6-6-6-6-6-6-6-6--| 

2:32 
G|----| 
D|----| 
A|8---| 
D|----| 

G|-----------------| 
D|-----------------| 
A|3-------4---2-1--| 
D|-----------------|x6 

G|-----------------| 
D|-----------------| 
A|-----------------| 
D|3---3---4---2-1--|x2 

G|-----------------| 
D|-----------------| 
A|-----------------| 
D|3-------4---2-1--|x2 

G|-----------------| 
D|-----------------| 
A|--3--------------| 
D|3---3-3-4-4-2-1--| 

G|----11-----------| 
D|------33---------| 
A|--33-------------| 
D|33------44442211-| 


3:30 
G|-----------------| 
D|-----------------| 
A|--------------0--| 
D|6-6-6-6-6-6-4----|x4 


3:39 
G|-------------------------------------------------| 
D|-------------------------------------------------| 
A|0-----0---4-2-0-0-----0---2-4-0---------2-4-0----| 
D|--4-6---4---------4-6---4-------6-6-6-6-------6--| 

G|-------------------------------------------------| 
D|--------------------------------------------666--| 
A|0-----0---4-2-0-0-----0---2-4-0------------------| 
D|--4-6---4---------4-6---4-------6-6-6-6-6-6------| 

G|-------------------------------------------------| 
D|-------------------------------------------------| 
A|0-----0---4-2-0-0-----0---2-4-0------------------| 
D|--4-6---4---------4-6---4-------6-6-6-6-6-6-6-6--| 

G|-------------------------------------------------------------------| 
D|-------------------------------------------------------------------| 
A|0-----0---4-2-0-0-----0---2-4-0-------------------------------0----| 
D|--4-6---4---------4-6---4-------6-6-6-6-6-6-6-6-6-6-6-6-6-6-4---6--| 

G|---------------------------------| 
D|---------------------------------| 
A|------------0---------------0----| 
D|6-6-6-6-6-4---6-6-6-6-6-6-4---6--| 



************************************ 

| ~  Vibrato 
| /  Slide up 

************************************ 
	  

Search Paypal
auto scroll beats size up size down change color hide chords drawings
tab show chords e-chords YouTube Clip e-chords hide all tabs e-chords go to top tab