Fatboy Slim

Praise You

Fatboy Slim

bass

save to print version add songbook text version e-mail correct tuner
chordsukulelecavacokeyboardtabbassdrumsharmonicaflute Guitar Pro
close

there isn't a video lesson for this song

chords

Praise You

Year: 1998 - Album: The Greatest Hits: Why Try Harder

	  		

Heres the way to play it!
the main riff at least....


Main Riff:

G|-------3-6-----------------------------------|
D|--4-4---------------3------------------------|
A|---------------4-4-------------3-3-4-4-5-6---|
E|----------------------4------4---------------|

Outro:

G|-----------------------|
D|-----------------------|
A|-----------------------|
E|-----4--4--4--4--------|

		  

See also:

bass Creed - Don Stop Dancing bass Foo Fighters - Breakout bass The Offspring - All I Want bass Guns N' Roses - Knockin' on Heaven's Door (ver. 2) bass Guns N' Roses - Used To Love Her bass Creed - Six Feet From The Edge
e-chords

Other versions:

bass Fatboy Slim - Praise You bass Fatboy Slim - Praise You (ver. 2)
auto scroll beats size up size down change color hide chords drawings
tab show chords e-chords YouTube Clip e-chords hide all tabs e-chords go to top tab

share