Electric Six

Dance Commander

Electric Six

bass

save to print version add songbook text version e-mail correct tuner
chordsukulelecavacokeyboardtabbassdrumsharmonicaflute Guitar Pro
close

there isn't a video lesson for this song

chords

Dance Commander

	  		




Tabbed by Systemsugar

This is the bass tab for Dance Commander

No bass in intro

G ----|
D ----|
A ----|
E 5/2-|

Main Riff x3
G ----------------------|
D ----------------------|
A -------------2-22-220-|
E 2-22--33-33-----------|

Bridge
G ---------------------------|
D --------------2-2-22-3-2-0-|
A 5-5-55-0-2-3---------------|
E ---------------------------|

Main Riff x3
G ----------------------|
D ----------------------|
A -------------2-22-220-|
E 2-22--33-33-----------|

Then
G ----------------------|
D ----------------------|
A -------------22222222-|
E 2-22--33-33-----------|

G ----|
D ----|
A ----|
E 5/2-|


Verse x3
G ----------------------|
D ----------------------|
A -------------2-22-220-|
E 2-22--33-33-----------|

Then
G ---------------------------|
D ---------------------------|
A -------------2-22-2--------|
E 2-22--33-33----------0-2-3-|

Verse x3
G ----------------------|
D ----------------------|
A -------------2-22-220-|
E 2-22--33-33-----------|

Then
G --------------------44444444---|
D -------------------------------|
A -------------2-22-2------------|
E 2-22--33-33--------------------|

Chorus x3
G ----------------------|
D ----------------------|
A -------------2-22-220-|
E 2-22--33-33-----------|

Bridge
G --------------------------|
D -------------2-2-22-3-2-0-|
A 5-5-55-0-2-3--------------|
E --------------------------|

Interlude x4 
G ------------------------------------------------|
D ------------------------------------------------|
A 2-2--2-2-0--2-2--2-2-0---------------0-0--------|
E -------------------------3-3--3-3-0-------2-2-2-|

Main Riff x5 
G ----------------------|
D ----------------------|
A -------------2-22-220-|
E 2-22--33-33-----------|

End
G ----------------|
D ----------------|
A -------------2--|
E 2-22--33-33-----|


Thatís it!

		  

See also:

bass The White Stripes - Seven nation army bass Counting Crows - Mr Jones bass The Killers - Somebody Told Me bass Dave Matthews Band - #41 bass Kiss - Black Diamond bass Foo Fighters - Everlong
e-chords

Other versions:

bass Electric Six - Dance Commander
auto scroll beats size up size down change color hide chords drawings
tab show chords e-chords YouTube Clip e-chords hide all tabs e-chords go to top tab

share