Electric Six

Naked Pictures of Your Mother

Electric Six

bass

save to print version add songbook text version e-mail correct tuner
chordsukulelecavacokeyboardtabbassdrumsharmonicaflute Guitar Pro
close

there isn't a video lesson for this song

chords

Naked Pictures of Your Mother

	  		

Naked pictures (of your mother)


Tabbed by Systemsugar

Here’s the bass tab for Naked pictures….
Standard tuning

Guitar intro x2

Main Riff x10
| ---------------------------------|
| -----------------2-2-------------|
| -----0-2------0------2-3-4-4-3-2-|
| 4-4------4-4---------------------|

Chorus x3
| ------------------------------|
| ------------------------------|
| ------------5-4--4-4--0-0-0-0-|
| 4-4-4-4-4-4-------------------|

Bridge
| -----7-9------7-7-9------7-9------7-7-9-|
| 7-7------7-7---------7-7------7-7-------|
| ----------------------------------------|
| ----------------------------------------|

| -----7-9------7-7-9------7-9------7-7/0-|
| 7-7------7-7---------7-7------7-7-------|
| ----------------------------------------|
| ----------------------------------------|

Main Riff x12
| ---------------------------------|
| -----------------2-2-------------|
| -----0-2------0------2-3-4-4-3-2-|
| 4-4------4-4---------------------|

Chorus x3
| ------------------------------|
| ------------------------------|
| ------------5-4--4-4--0-0-0-0-|
| 4-4-4-4-4-4-------------------|

Bridge
| -----7-9------7-7-9------7-9------7-7-9-|
| 7-7------7-7---------7-7------7-7-------|
| ----------------------------------------|
| ----------------------------------------|

| -----7-9------7-7-9------7-9------7-7/0-|
| 7-7------7-7---------7-7------7-7-------|
| ----------------------------------------|
| ----------------------------------------|

That’s it!

		  

See also:

bass The White Stripes - Seven nation army bass Counting Crows - Mr Jones bass The Killers - Somebody Told Me bass Dave Matthews Band - #41 bass Kiss - Black Diamond bass Foo Fighters - Everlong
e-chords

Other versions:

bass Electric Six - Naked Pictures of Your Mother
auto scroll beats size up size down change color hide chords drawings
tab show chords e-chords YouTube Clip e-chords hide all tabs e-chords go to top tab

share