Duran Duran

home > Duran Duran

Save a Prayer Bass Tab

Duran Duran

Difficulty: nolevelnolevel

by Acelot

tuner correct add songbook print version text version save to e-mail
chordsukulelecavacokeyboardtabbassdrumsharmonicsflute Guitar Pro
chords

Save a Prayer

Year: 1982 - Album: Greatest

	  
Intro:  

G|-------------------------------------------|  
D|----7-5-4-3--3-----------------------------|  
A|-5-------------3-2--1-1/8-8-9-10-10-8-8-8--|  
E|-------------------------------------------|  

verse 1:  

G|-------------------------------------------|  
D|-----7-5-4-3--3----------------------------|  
A|-5--------------3-2--1-1/8-8-9-10-10-8-8-8-|  
E|-------------------------------------------|  

G|--------------------------------------------|  
D|-----7-5-4-3--3-----------------------------|  
A|-5--------------3-2--1--1-1-0--------3--3-3-|  
E|------------------------------3--3----------|  

G|----------------2-3-4-------------------------|  
D|-----4-5-6--3---------------------------------|  
A|-5--------------------1-1--1-0--------3-3-3---|  
E|-------------------------------3--3-----------|  

Chorus:  

G|-------------------------------------|  
D|-----------------5----5-5-4---4-7-7--|  
A|-2---2-4-5---5-5---------------------|  
E|-------------------------------------| (2x)  

Intro 2:  

G|---------------------------------------------|  
D|-----7-5-4-3--3------------------------------|  
A|-5--------------3-2--1--1-0---------3--3-3---|  
E|-----------------------------3--3------------| (2x)  

verse 2:  


G|---------------------------------------------|  
D|-----7-5-4-3---------------------------------|  
A|-5--------------3-2--1--1-0---------3--3-3---|  
E|-----------------------------3--3------------| (2X)   

G|-----------------2-3-4------------------------|  
D|-----4-5-6--3---------------------------------|  
A|-5---------------------1-1----0--------3-3-3--|  
E|--------------------------------3--3----------| (2x)  

Chorus 2:  
 

G|-------------------------------------|  
D|-----------------5----5-5-4---4-7-7--|  
A|-2---2-4-5---5-5---------------------|  
E|-------------------------------------|  
 

G|------------------------------------------|  
D|-----------------5----5-5-4---4-----------|  
A|-2---2-4-5---5-5-----------------0-0--2-2-|  
E|------------------------------------------|  

G|------------------------------------------------|  
D|---------------------5----5-5-5-4---4-----------|  
A|-2---2-4-5---5-5-5-5-------------------0-0--2-2-|  
E|------------------------------------------------|  

G|------------------------------------|  
D|-----------------5--5-5-5-4---4-----|  
A|-2---2---5-5-5-5----------------0-0-|  
E|------------------------------------|  

Intro 3:  

G|-------------------------------------|  
D|----------3-3-3----------------------|  
A|-5-5-5-5--------0--1-1-1-0-----3-3-3-|  
E|---------------------------3-3-------|  

G|----------------------------------------------|  
D|----------3-3-3-------------------------------|  
A|-5-5-5-5--------0--1-1-1-1/10-10-10--8-8-8--5-|  
E|----------------------------------------------|  

verse 3:  

G|--------------------------------------|  
D|----------3-3-3-----------------------|  
A|-5-5-5-5--------0--1-1-1-0-----3-3-3--|  
E|---------------------------3-3--------| (4x)  

Chorus 3:   

G|--------------------------------------|  
D|-------------------5--5-5-5-4---4-----|  
A|-2--2-2-2-5--5-5-5----------------0-0-|  
E|--------------------------------------|  

G|-----------------------------------------|  
D|-------------------5--5-5-5-4---4--------|  
A|-2--2-2-2-5--5-5-5----------------0-0--2-|  
E|-----------------------------------------|  


End:  

G|--------------------------------------------------|  
D|--------------------------------------------------|  
A|-5-3--1--0---5-3--1--0---5-3--1--0---5-3--1--0--3-|  
E|--------------------------------------------------|  

G|----------------------------------------|  
D|----------------------------------------|  
A|-5-3--1--0-3--5-3--1--0-0-0-0--3-3-3-3--|  
E|----------------------------------------|  

G|-----------------------------------------------------|  
D|-----------------------------------------------------|  
A|-5-3--1--0-0-0-0--3-3-3-3---5-3--1--0-0-0-0--3-3-3-3-|  
E|-----------------------------------------------------|  

G|--------------------------|  
D|--------------------------|  
A|-5-3--1--0-0-0-0--3-3-3-3-|  
E|--------------------------|  

G|----------------------------------|  
D|----------------------------------|  
A|-5-5-5-5--3-3-3-3--1-1-1-1--0-3-5-|  
E|----------------------------------|  

	  

there isn't a video lesson for this song

request
Search
auto scroll beats size up size down change color hide chords drawings
tab show chords e-chords YouTube Clip e-chords hide all tabs e-chords go to top tab