Daft Punk

Aerodynamic

Daft Punk

bass

by  GUSTSILVA

save to print version add songbook text version e-mail correct tuner
chordsukulelecavacokeyboardtabbassdrumsharmonicaflute Guitar Pro
close

there isn't a video lesson for this song

chords

Aerodynamic

Year: 2001 - Album: Discovery

Written by Thomas Bangalter/Guy-Manuel de Homem-Christo

	  		Intro 
G|----------------------------------------------------------------------| 
D|-----------------------------5---5------------------------------5---5-| 
A|--2-0-2-------------2-0-2-------------2-0-2------------2-0-2----------| 
D|---------4-5--2--4---------4-2-5-5--4--------4-5--2--4--------4-2-5-5-| 

Main riff 
G|-----------------------------------| 
D|-----------------------------------| 
A|---2-0-2-------------2-0-2---------| 
D|-4--------4-5-x-2--4-------4-5-5-2-| x4 

Break (1:02 - 1:33) 
No bass 

Intro 
G|----------------------------------------------------------------------| 
D|-----------------------------5---5------------------------------5---5-| 
A|--2-0-2-------------2-0-2-------------2-0-2------------2-0-2----------| 
D|---------4-5--2--4---------4-2-5-5--4--------4-5--2--4--------4-2-5-5-| 

Main riff 
G|-----------------------------------| 
D|-----------------------------------| 
A|---2-0-2-------------2-0-2---------| 
D|-4--------4-5-x-2--4-------4-5-5-2-| x4 

Outro (2:21 - 3:28) 
No bass 


************************************ 

| x   Muted note 

************************************ 
		  

auto scroll beats size up size down change color hide chords drawings
tab show chords e-chords YouTube Clip e-chords hide all tabs e-chords go to top tab