Cursive

home > Cursive

A Gentlemen Caller Bass Tab

Cursive

Difficulty: nolevelnolevel

by ubirbomfim

tuner correct add songbook print version text version save to e-mail
chordsukulelecavacokeyboardtabbassdrumsharmonicsflute Guitar Pro
chords

A Gentlemen Caller

  		
Chorus 
G|------------------------------------------------------------------------------------------|| 
D|------------------------------------------------------------------------------------------|| 
A|------------------------------------------------------------------------------------------|| 
E|--2--3-3--2--3-3-/10-10-10-10--2--3-3--2--3-3--/10-10-10-10--2--3-3--2--3-3-/10-10-10-10--|| 

G|--------------------------------------------------------|| 
D|--------------------------------------------------------|| 
A|---------------------------8--8-8-8--8-8-8--8-8-8--8-8--|| 
E|--6--6-6-6--6--6--6--6--6/------------------------------|| 

Verse 
G|------------------------------------------------------------------------------------|| 
D|------------------------------------------------------------------------------------|| 
A|------------------------------------------------------------2-----2-----2-----2-----|| 
E|--7--7-7-7--7--7-0-5--3--5--3--5--3--5--3--0--0-0-0--0--0-0----3-----3-----3-----3--|| 

G|-------------------------------------------------------------------------------|| 
D|-------------------------------------------------------------------------------|| 
A|-------------------5-----5-----5-----5-----5--5--5-----------------------------|| 
E|--2--2-2-2--2--2-2----3-----3-----3-----3/----------7--7--7--8--8--8--3--3--3--|| 

G|------------------------------------------------------------------------------------|| 
D|------------------------------------------------------------------------------------|| 
A|------------------------------------------------------------2-----2-----2-----2-----|| 
E|--7--7-7-7--7--7-0-5--3--5--3--5--3--5--3--0--0-0-0--0--0-0----3-----3-----3-----3--|| 

G|-------------------------------------------------------------------------------|| 
D|-------------------------------------------------------------------------------|| 
A|-------------------5-----5-----5-----5-----5--5--5-----------------------------|| 
E|--2--2-2-2--2--2-2----3-----3-----3-----3/----------7--7--7--8--8--8--3--3-----|| 

Outro 
G|----------------------------------------------|| 
D|----------------------------------------------|| 
A|----------------------------------------------|| 
E|--5~--------7~--------10~-----9--7--3~--------|| 
	  

Search Paypal
auto scroll beats size up size down change color hide chords drawings
tab show chords e-chords YouTube Clip e-chords hide all tabs e-chords go to top tab