Balthazar

home > Balthazar

Wrong Faces Bass Tab

Balthazar

Difficulty: nolevelnolevel

by abelamin

tuner correct add songbook print version text version save to e-mail
chordsukulelecavacokeyboardtabbassdrumsharmonicsflute Guitar Pro
chords

Wrong Faces

  		Riff during the whole song 

G|-------------------------------------------------| 
D|-----9-9-7---7-7------7----12-12\14-12--9--------| 
A|-----------9-----9--9---10---------------9-------| 
E|--7----------------------------------------8-9---| 

G|--------------------------------------------------| 
D|-----9-9-7---7-7-------------5-5-3-5--------------| 
A|-----------9-----9--7--5--------------5-3--3------| 
E|--7-----------------------3------------------7----| 



************************************ 
| \   Slide down 
************************************ 
	  

Search Paypal
auto scroll beats size up size down change color hide chords drawings
tab show chords e-chords YouTube Clip e-chords hide all tabs e-chords go to top tab