Backyard Babies

Payback

Backyard Babies

bass

save to print version add songbook text version e-mail correct tuner
chordsukulelecavacokeyboardtabbassdrumsharmonicaflute Guitar Pro
close

there isn't a video lesson for this song

chords

Payback

	  		



Band: 
  - Making Enemies is Good
Instrument: Bass
Tabbed by: Uzi69

Verse1:
Gb|-----------------------------|
Db|-----------------------------|
Ab|-----------------------------|
Eb|-0-0-3-0-5-0-6-5-(x3)--3~-7~-|

Verse2:
Gb|-----------------------------|
Db|-----------------------------|
Ab|-----------------------------|
Eb|-0-0-3-0-5-0-6-5-(x4)--------|

Pre-Chorus:
Gb|---------------------------------------|
Db|---------------------------------------|
Ab|---------------------------------------|
Eb|-7-7-7-7-6-5--7-7-7-7-6-5--7-7-7-7-6-5-|

Chorus:
Gb|----------------------------------------------------------------|
Db|----------------------------------------------------------------|
Ab|-7-7-7-7-7-7-7-7-10-10-10-10-10-10-10-10----------3-3-3-3-5-5-5-|
Eb|------------------------------------------3--7--0---------------|

Post-Chorus:
Gb|----------------------------------------|
Db|----------------------------------------|
Ab|----------------------------------------|
Eb|-0-3-5-6-5-3-0--12/--0-3-5-6-5-3-0------|

Breakdown:
Gb|------------------------------------
Db|------------------------------------
Ab|-3~---5~----7-7-7-7-7-7-7-7---------
Eb|------------------------------------

Gb|--------------------------------------------|
Db|--------------------------------------------|
Ab|-3~---5~------------------------------------|
Eb|------------6-6-6-6-6-6-6-6-6-6-6-6-6-6-6-6-|

Extended Post-Chorus:
Gb|-----------------------------------------------------|
Db|-----------------------------------------------------|
Ab|-----------------------------------------------------|
Eb|-0-3-5-6-5-3-0-3-5-6-5-3-0-3-5-6-5-3-0-6-6-6-6-6-5-3-|

Solo:
Gb|---------------------------------------|
Db|---------------------------------------|
Ab|---------------------------------------|
Eb|-0-0-3-0-5-0-6-5--0-0-3-0-5-0-6-5------|

Gb|---------------------------------------|
Db|---------------------------------------|
Ab|-0-0-3-0-5-0-6-5--0-0-3-0-5-0-6-5------|
Eb|---------------------------------------|

Gb|---------------------------------------|
Db|---------------------------------------|
Ab|---------------------------------------|
Eb|-0-0-3-0-5-0-6-5--0-0-3-0-5-0-6-5------|

Order:
Verse 1 - x1
Verse 2 - x1
Pre-Chorus - x1
Chorus - x2
Post-Chorus - x1
Verse 1 - x1
Verse 2 - x1
Pre-Chorus - x1
Chorus - x2
Breakdown - x1
Post-Chorus - x1
Extended Post Chorus - x1
Solo - x1
Pre-Chorus - x1
Chorus - Play it til you Drop!


+---------------------------+ 
|     Taken from Dreggy's   | 
|  Backyard Babies Website  | 
|www.backyard-babies.cjb.net| 
+---------------------------+

		  

See also:

bass Yngwie Malmsteen - Little Savage bass Yngwie Malmsteen - Black Star bass Yngwie Malmsteen - Icarus Dream Suite - Opus 4 bass Yngwie Malmsteen - As Above, So Below
e-chords

Other versions:

bass Backyard Babies - Payback bass Flaw - Payback bass Flaw - Payback (FULL) bass Flaw - Payback (ver. 2) bass Flaw - Payback (ver. 3) bass Flaw - Payback :
auto scroll beats size up size down change color hide chords drawings
tab show chords e-chords YouTube Clip e-chords hide all tabs e-chords go to top tab

share