AC/DC

home > AC/DC

Hells Bells Bass Tab

AC/DC

Difficulty: ExpertExpert

tuner correct add songbook print version text version save to e-mail
chordsukulelecavacokeyboardtabbassdrummharmonicsflute Guitar Pro
chords

Hells Bells

Year: 1992 - Album: Back in Black

(Angus Young/ Malcolm Young/ Brian Johnson)

	  
Intro: 

G|--------------------------|----------------------------------------| 
D|--------------------------|----------------------------------------| 
A|---3-2-0-----0-----3-2-0--|----------------------------------------| 
E|--------------------------|---5-5-5-5-5-5-5-5--5-5-5-5-5-5-5-5-----| 

G|-------------------------------------------------------------------| 
D|-------------------------------------------------------------------| 
A|-------------------------------------------------------------------| 
E|---5-5-5-5-5-5-5-5---5-5-5-5-5-8-7-5----5-5-5-5-5-5-5-5------------| 

G|-------------------------------------------------------------------| 
D|---------------------------------7-5-5-----------------------------| 
A|-----------------------------5/7-------5-5-------------------------| 
E|---5-5-5-5-5-5-5-5---5-5-5-5----------------8-7-5------------------| 

G|-------------------------------------------------------------------| 
D|-------------------------------------------------------------------| 
A|-----------------5-5-5-5-5-----------------------5-5-5-5-5---------| 
E|---5-5-5-5-5-5-5-----------8---7---5-5-5-5-5-5-5------------8--7---| 

Verso 1: 

G|-------------------------------------------------------------------| 
D|-------------------------------------------------------------------| 
A|----------------5-5-5-5-5-----------------------5-5-5-5-5----------| 
E|--5-5-5-5-5-5-5-----------8-8-7-7-5-5-5-5-5-5-5------------8-8-7-7-| 

G|-------------------------------------------------------------------| 
D|-------------------------------------------------------------------| 
A|----------------5-5-5-5-5-----------------------5-5-5-5-5----------| 
E|--5-5-5-5-5-5-5-----------8-8-7-7-5-5-5-5-5-5-5------------8--7----| 

G|-------------------------------------------------------------------| 
D|-------------------------------------------------------------------| 
A|--5-5-5-5-5-5-5-5---5-5-5-3-------5-5-5-5-5-5-5-5-0--3-------------| 
E|------------------------------3--------------------------3---------| 

G|-------------------------------------------------------------------| 
D|-------------------------------------------------------------------| 
A|--7-7-7-7---7-7-7-7-7-7-7-5----------------------------------------| 
E|-----------------------------5---0-0-0-0-0-0-0-0-0-0-0-0-0-3-3-3/4-| 

Chorus: 

G|-------------------------------------------------------------------| 
D|-------------------------------------------------------------------| 
A|-------------------------------------------------------------------| 
E|--5-5-5-5---5-5-5-5-5-5-5---5-5-5-5-5-5-5---5-5-5-5-5-5-5---8-7-5--| 

G|-------------------------------------------------------------------| 
D|-------------------------------------------5/7-7-5-5-5-5-7---------| 
A|-----------------------------------------------------------5-------| 
E|--5-5-5-5---5-5-5-5-5-5-5---5-5-5-5-5-5-5-5------------------8-7-5-| 

G|-------------------------------------------------------------------| 
D|-------------------------------------------------------------------| 
A|----------------5-5-5-5-5----------------------5-5-5-5-5-----------| 
E|--5-5-5-5-5-5-5------------8--7--5-5-5-5-5-5-5------------8---7----| 


Verso 2: 

G|-------------------------------------------------------------------| 
D|-------------------------------------------------------------------| 
A|----------------5-5-5-5-5-----------------------5-5-5-5-5----------| 
E|--5-5-5-5-5-5-5-----------8-8-7-7-5-5-5-5-5-5-5------------8-8-7-7-| 

G|-------------------------------------------------------------------| 
D|-------------------------------------------------------------------| 
A|----------------5-5-5-5-5-----------------------5-5-5-5-5----------| 
E|--5-5-5-5-5-5-5-----------8-8-7-7-5-5-5-5-5-5-5------------8--7----| 

G|-------------------------------------------------------------------| 
D|-------------------------------------------------------------------| 
A|--5-5-5-5-5-5-5-5---5-5-0-3-------5-5-5-5-5-5-5-5-0--3-------------| 
E|------------------------------3--------------------------3---------| 

G|-------------------------------------------------------------------| 
D|-------------------------------------------------------------------| 
A|--7-7-7-7---7-7-7-7-7-7-7-5----------------------------------------| 
E|-----------------------------5---0-0-0-0-0-0-0-0-0-0-0-0-0-3-3-3/4-| 


Chorus 2 

G|-------------------------------------------------------------------| 
D|-------------------------------------------------------------------| 
A|-------------------------------------------------------------------| 
E|--5-5-5-5---5-5-5-5-5-5-5---5-5-5-5-5-5-5---5-5-5-5-5-5-5---8-7-5--| 

G|-------------------------------------------------------------------| 
D|--------------------------------------------------5/7-5------------| 
A|-------------------------------------------------------------------| 
E|--5-5-5-5---5-5-5-5-5-5-5---5-5-5-5-5-5-5-5-5-3-3--------8-7-5-----| 

G|-------------------------------------------------------------------| 
D|-------------------------------------------------------------------| 
A|-------------------------------------------------------------------| 
E|--5-5-5-5-5-5-5-5-5-5-5-5-5-5-5-5-5-5-5-5-5-5-5-5-5-5-5-5-5-5/-----| 



Base Guitar Solo: 


G|-------------------------------|-----------------------------------| 
D|-------------------------------|-----------------------------------| 
A|--0----0--0---3--3-0--5--5-5---|-----0----0--0---3--3-0--5--5-5----| 
E|----3b------0------------------|-------3b------0-------------------| 

G|-------------------------------------------------------------------| 
D|-------------------------------------------------------------------| 
A|--5-5-5-3-5-5-3-5-5-5-0-3-3---5-5-3-5-5-3-5-5-5-0-3-3--------------| 
E|----------------------------3-------------------------3------------| 

G|-------------------------------------------------------------------| 
D|-------------------------------------------------------------------| 
A|--7-7-5-7--7-5-7--7-7-7-0-5-5--------------------------------------| 
E|------------------------------5--0-0-0-0-0-0-0-0-0-0-2-2-3-3-3-3---| 


 Chorus 3: 

G|-------------------------------------------------------------------| 
D|-------------------------------------------------------------------| 
A|-------------------------------------------------------------------| 
E|--5-5-5-5---5-5-5-5-5-5-5---5-5-5-5-5-5-5---5-5-5-5-5-5-5---8-7-5--| 

G|-------------------------------------------------------------------| 
D|-------------------------------------------------------------------| 
A|----------------------------------------------------5--------------| 
E|--5-5-5-5---5-5-5-5-5-5-5---5-5-5-5-5-5-5-5-5-8-8-5----8-7-5-------| 

G|-------------------------------------------------------------------| 
D|---------------------------------------------7---------------------| 
A|-----------------------------------------5/7---------5-5-5-5-------| 
E|--5-5-5-5--5-5-5-5-5-5-5--5-5-5-5-5-5-5--------8-8-5---------------| 


End: 

G|-------------------------------------------------------------------| 
D|-------------------------------------------------------------------| 
A|----0----0--0---3--3-0-5---0----0--0-0-3--3-0-5---0----0-0---3-3-5-| 
E|--0---3b------0--------------3b---------------------3b-----0-------| 

G|-------------------------------------------------------------------| 
D|-------------------------------------------------------------------| 
A|--0----0----3---3/5-----------0---0--------------------------------| 
E|----3b--------------------------3----------------------------------| 

	  

there isn't a video lesson for this song

request
Search
auto scroll beats size up size down change color hide chords drawings
tab show chords e-chords YouTube Clip e-chords hide all tabs e-chords go to top tab