Victor e Léo

home > Victor e L... > chords

Amigos Apaixonados Tab

Victor e Léo

Difficulty: BeginnerBeginner

by frinds

tuner correct add songbook print version text version rtf version e-mail
chordsukulelecavacokeyboardtabbassdrumsharmonicsflute Guitar Pro
chords

Amigos Apaixonados

	  Composição: MICHEL PR 

 e|---------------7-----7-----5------5------------7------7-------------7--------------7----5--| 
 B|----------5-----------5----5----5---5--------8------8---8--------10---10---------5---5--5--| 
 G|------------5------5----5--5--5-------5----7------7-------7----7--------7------5------5----| 
 D|--------------5--5-----------------------7-------------------7---------------5-------------| 
 A|---------------------------------------------------------------------------5---------------| 
 E|-------------------------------------------------------------------------------------------| 

 e|---5--5-------7----7------------7----------------------------------------------------------| 
 B|--5--5------8----8---8-------10------------------------------------------------------------| 
 G|-5--5-----7----7-------7---7---------------------------------------------------------------| 
 D|--------7----------------7-----------------------------------------------------------------| 
 A|-------------------------------------------------------------------------------------------| 
 E|-------------------------------------------------------------------------------------------| 

	  

Request the video "Amigos Apaixonados"  -  Send "Amigos Apaixonados" Ringtone to your Cell

there isn't a video lesson for this song

request
e-chords
Search
auto scroll beats size up size down change color hide chords drawings
tab show chords e-chords YouTube Clip e-chords hide all tabs e-chords go to top tab