Toto

home > Toto

Manuela Run Tab

Toto

Difficulty: BeginnerBeginner

tuner correct add songbook print version text version save to e-mail
chordsukulelecavacokeyboardtabbassdrumsharmonicsflute Guitar Pro
chords

Manuela Run

	  e|------------------------3-3-3---------------------------|
B|--2-3-5--5-3-2--2-------3-3-3--3-2-2--------3-2-2-------|
G|--2-2-2--2-2-2--2--2-2--0-0-0--2-2-2--------2-2-2-------|
D|-------------------1-1----------------------------------|
A|--------------------------------------------------------|
E|--------------------------------------0-2-5-------0-2-5-|

Don't look now you better watch
That sword that's hanging over you
It's a long hard road and they will spit you out
When they get through with you

        D      G    F#m
                X2     b      b          
e|-------------3-|-----------------------|----------|
B|--x-x-3--x-x-3-|---9-(10)-9-(10)--9----|----------|
G|--x-x-2--x-x-0-|--------------------9--|----------|
D|------0------0-|-----------------------|----------|
A|---------------|-----------------------|----4--2--|
E|-------------3-|-----------------------|-2--------|


Don't hang your head so the wise man said
Or boy you'll soon be dead

       D      A      E
e|------------------------------------------------|
B|-x-x-7--x-x----x-x-9-----7-----9-----x-x-10-10--|
G|-x-x-7--x-x----x-x---9-----9-----9---x-x--------|
D|-x-x-7--x-x-7--x-x-----9-----9-----9------------|
A|-----5------7-----------------------------------|
E|------------5-----------------------------------|

           D          A          E
You better run, run Manuela-uela run
              D                A                  E
They're gonna shoot you in the back with your own gun
           D          A          E            F#m   D
You better run, run Manuela-uela run, Manuela run


There's no more time for living out your life
Your sky is falling down
Don't close your eyes or make a wish on three
Cause they will still be 'round

Don't hang your head, so the wise man said
Or boy you'll soon be dead

Chorus

   A                  E             G        D     A    
e|-------------------------------------------------------|
B|-14-15-17--17-15-14-12-(14)-12-12-15-15-15-15-14-14----|
G|-------------------------------------------------------|
D|-------------------------------------------------------|
A|-------------------------------------------------------|
E|-------------------------------------------------------|

   A                  E            G     D       A
e|-----------------------14-16--16-17-19-21-(22)-21-21-|
B|-14-15-17--17-15-14-17-------------------------------|
G|-----------------------------------------------------|
D|-----------------------------------------------------|
A|-----------------------------------------------------|
E|-----------------------------------------------------|

   A
e|-21-(22)-(21)-19-17-----------------------------17-|
B|--------------------19-17-15-----------------------|
G|-----------------------------18-(19)-(18)-16-14----|
D|---------------------------------------------------|
A|---------------------------------------------------|
E|---------------------------------------------------|

Don't hang your head so the wise man said
Or boy you'll soon be dead

Chorus
	  

there isn't a video lesson for this song

request
Full key step upFull key step up
Half key step upHalf key step up
Half key step downHalf key step down
Full key step downFull key step down
Search
auto scroll beats size up size down change color hide chords drawings
tab show chords e-chords YouTube Clip e-chords hide all tabs e-chords go to top tab