Temas Variados

home > Temas Vari... > chords

Tema Das Olimpíadas Tab

Temas Variados

Difficulty: BeginnerBeginner

by felipemontero

tuner correct add songbook print version text version rtf version e-mail
chordsukulelecavacokeyboardtabbassdrumsharmonicsflute Guitar Pro
chords

Tema Das Olimpíadas

	  1ª parte 
e |--------5--------------5-------------5--------------------- 
B |--6---8---8--5----6--8---8-----6---8---8--5---5-6-5-------- 
G |-5--------------5------------5----------------------5-5---- 
D |----------------------------------------------------------- 
A |----------------------------------------------------------- 
E |----------------------------------------------------------- 

2ª parte 

e |----8-7-5---7---5-------8-7-5---7---5---------------------- 
B |----------8---8---6-8---------8---8---6-8----5-6-5--------- 
G |---------------------------------------------------5-5----- 
D |----------------------------------------------------------- 
A |----------------------------------------------------------- 
E |----------------------------------------------------------- 
	  

Request the video "Tema Das Olimpíadas"  -  Send "Tema Das Olimpíadas" Ringtone to your Cell

there isn't a video lesson for this song

request
e-chords
Search
auto scroll beats size up size down change color hide chords drawings
tab show chords e-chords YouTube Clip e-chords hide all tabs e-chords go to top tab