Primus

home > Primus > chords

My Name Is Mud (4-string) Tab

Primus

Difficulty: ExpertExpert

by school_damage

tuner correct add songbook print version text version rtf version e-mail
chordsukulelecavacokeyboardtabbassdrumsharmonicsflute Guitar Pro
chords

My Name Is Mud (4-string)

	  My Name Is Mud (4-string arrangement) 
Primus - Pork Soda 
 
This song sounds alright on a 4-string, 
Although it should be played on at least a 5-string 
But I?ll still write it out for those who can?t wait until 
They buy themselves a 5-string 
And of course everything is slapped 
 
Key: |*-*| = repeat once more unless otherwise noted 
     |*-*| 
 
Intro:    Bass Fig. 1-------------------------------|| 
G|--------|-----------------------------------------| 
D|--------|-----------------------------------------| 
A|--------|-----------------10------------------10--| 
E|---5\---|-8h10-10-8h10-10/----8h10-10-8h10-10/----| 
 
G|-----------------------------------------|| 
D|*---------------------------------------*|| 
A|*----------------10---------------------*|| 
E|-8h10-10-8h10-10/----8h10-10-8h10-10-7---|| 
                                      w/dist. 
G|---------------------------------------------| 
D|---------------------------------------------| 
A|-----------------10----x----x----x-----------| 
E|-8h10-10-8h10-10----10---10---10---7-12--x\8-| 
Bass Fig. 2 
G|--------------------------------------------------------------------| 
D|-------------5-------------5--------------5-------------5-7h10------| 
A|-3h5-5-3h5-5/--3h5-5-3h5-5/---3h5-5-3h5-5/--3h5-5-3h5-5/-------7h10-| 
E|--------------------------------------------------------------------| 
Bass fill 1 
G|----------------------------------------------------------------| 
D|----------------------------------------------------------------| 
A|-----------------10----------10h11h12-11h12h13-13-x-x--12h13h14-| 
E|-8h10-10-8h10-10/----8h10-10------------------------------------| 
Bass Fill 2 
G|--------------------------------| 
D|-------------5-------------(4)\-| 
A|-3h5-5-3h5-5/---3h5-5-3h5-5-----| 
E|--------------------------------| 
Bass fill 3 
G|------------------------------------------| 2 more times 
D|------------------------------------------| 
A|-----------------10------------------(9)\-| 
E|-8h10-10-8h10-10/----8h10-10-8h10-10------| 
Bass fill 4           2 more times 
G|-------------------------------|-------------------------------| 
D|*------------5--------------5-*|-------------5-----------------| 
A|*3h5-5-3h5-5/---3h5-5-3h5-5/--*|-3h5-5-3h5-5/---3h5-5-3h5-5----| 
E|-------------------------------|----------------------------7--| 
                                                              w/dist. 
Outro                                  harm. 
G|-------------------------------------12----| 
D|-------------------------------------12----| 
A|-------------------------------------12----| 
E|-8h10-10-8h10-10/----8h10-10-8h10-10-12----| 
 
After you figure out where to play everything  
the songs not to difficult 

	  

Request the video "My Name Is Mud (4-string)"  -  Send "My Name Is Mud (4-string)" Ringtone to your Cell

there isn't a video lesson for this song

request
Search
auto scroll beats size up size down change color hide chords drawings
tab show chords e-chords YouTube Clip e-chords hide all tabs e-chords go to top tab