Owl City

home > Owl City > chords

The Saltwater Room Tab

Owl City

Difficulty: BeginnerBeginner

by aman_claudino

tuner correct add songbook print version text version rtf version e-mail
chordsukulelecavacokeyboardtabbassdrumsharmonicsflute Guitar Pro
chords

The Saltwater Room

	  (intro) 

E |---------3-------0---------3-------0-----| 
B |-------1---1---1---------1---1---1-------| 
G |-----2-------2---------2-------2---------| 
D |---3-----------------3-------------------| 
A |-----------------------------------------| 
E |-----------------------------------------| 

E |-----------------------------------------| 
B |---------3-----3/5---------3-1-----------| 
G |-------0---0---0---------0-----4-0-------| 
D |-----2-------2---------2-----------2-----| 
A |---3-----------------3-------------------| 
E |-----------------------------------------| 

E |---------3-------0---------3-------0-----| 
B |-------1---1---1---------1---1---1-------| 
G |-----2-------2---------2-------2---------| 
D |---3-----------------3-------------------| 
A |-----------------------------------------| 
E |-----------------------------------------| 

E |-----------0----------------3---0--------| 
B |-------1-3---3-1----------1---3---3-1----| 
G |-----2-----------2------2----------------| 
D |----------------------3------------------| 
A |---0-------------------------------------| 
E |-----------------------------------------| 

(verse) 

      I opened my eyes last night and saw you in the low light 
E |---1-----------------------0------------0---------------------| 
B |---1-----------------------1------------3---------------------| 
G |---2-----------------------0------------0---------------------| 
D |---3-----------------------2------------2---------------------| 
A |---3-----------------------3------------3---------------------| 
E |---1----------------------------------------------------------| 

        Walking down by the bay, on the shore, staring up at the planes that aren’t 
anymore 
E |---1----------------------------------------0------------------0------------------| 
B |---1----------------------------------------1------------------1------------------| 
G |---2----------------------------------------2------------------0------------------| 
D |---3----------------------------------------2------------------2------------------| 
A |---3----------------------------------------0------------------3------------------| 
E |---1------------------------------------------------------------------------------| 

(last line) 

      As if you actually were inside a saltwater room 
E |---0-------------------3-----------0----------------0------------| 
B |---1-------------------1-----------1----------------1------------| 
G |---2-------------------2-----------2----------------0------------| 
D |---2-------------------3-----------3----------------2------------| 
A |---0------------------------------------------------3------------| 
E |-----------------------------------------------------------------| 

(Chorus) 

      Time together is just never quite enough. 
E |---3-----------------------0-----------------------------------------------| 
B |---1-----------------------1-----------------------------------------------| 
G |---2-----------------------2-----------------------------------------------| 
D |---3-----------------------3-----------------------------------------------| 
A |---------------------------------------------------------------------------| 
E |---------------------------------------------------------------------------| 

     When you and I are alone, I’ve never felt so at home 
E |--0-------------------------0----------------------------------------------| 
B |--1-------------------------3----------------------------------------------| 
G |--0-------------------------0----------------------------------------------| 
D |--2-------------------------2----------------------------------------------| 
A |--3-------------------------3----------------------------------------------| 
E |---------------------------------------------------------------------------| 

   What will it take to make or break this hint of love? 
E |---3---------------------------0-------------------------------------------| 
B |---1---------------------------1-------------------------------------------| 
G |---2---------------------------2-------------------------------------------| 
D |---3---------------------------3-------------------------------------------| 
A |---------------------------------------------------------------------------| 
E |---------------------------------------------------------------------------| 

         We need time          only time 
E |---0-----------0------------0------0-----------------------------------------| 
B |---1-----------3------------1------3-----------------------------------------| 
G |---2-----------2------------0------0-----------------------------------------| 
D |---2-----------2------------2------2-----------------------------------------| 
A |---0-----------0------------3------3-----------------------------------------| 
E |-----------------------------------------------------------------------------| 

(just repeat the rhythm for the rest of the Chorus) 

(verse 2 chords are the same as the ones used on the first verse) 

(pre-Chorus) 

       So tell me darling do you wish we’d fall in love,      all the time 
E |---1---------------------------0------------------1-------3--------------------| 
B |---1---------------------------1------------------1-------0--------------------| 
G |---2---------------------------0------------------2-------0--------------------| 
D |---3---------------------------2------------------3-------0--------------------| 
A |---3---------------------------3------------------3-------2--------------------| 
E |---1----------------------------------------------1-------3--------------------| 
	  

Request the video "The Saltwater Room"  -  Send "The Saltwater Room" Ringtone to your Cell

there isn't a video lesson for this song

request
e-chords
Search
auto scroll beats size up size down change color hide chords drawings
tab show chords e-chords YouTube Clip e-chords hide all tabs e-chords go to top tab